  0
SECTION
  2
HEADER
  9
$ACADVER
  1
AC1024
  9
$ACADMAINTVER
 70
     6
  9
$DWGCODEPAGE
  3
ASCII
  9
$INSBASE
 10
0.0
 20
0.0
 30
0.0
  9
$EXTMIN
 10
1.000000000000000E+20
 20
1.000000000000000E+20
 30
1.000000000000000E+20
  9
$EXTMAX
 10
-1.000000000000000E+20
 20
-1.000000000000000E+20
 30
-1.000000000000000E+20
  9
$LIMMIN
 10
0.0
 20
0.0
  9
$LIMMAX
 10
12.0
 20
9.0
  9
$ORTHOMODE
 70
     0
  9
$REGENMODE
 70
     1
  9
$FILLMODE
 70
     1
  9
$QTEXTMODE
 70
     0
  9
$MIRRTEXT
 70
     1
  9
$LTSCALE
 40
1.0
  9
$ATTMODE
 70
     1
  9
$TEXTSIZE
 40
0.2
  9
$TRACEWID
 40
0.05
  9
$TEXTSTYLE
  7
Standard
  9
$CLAYER
  8
0
  9
$CELTYPE
  6
ByLayer
  9
$CECOLOR
 62
    18
  9
$CELTSCALE
 40
1.0
  9
$DISPSILH
 70
     0
  9
$DIMSCALE
 40
1.0
  9
$DIMASZ
 40
2.5
  9
$DIMEXO
 40
0.625
  9
$DIMDLI
 40
0.38
  9
$DIMRND
 40
0.0
  9
$DIMDLE
 40
0.0
  9
$DIMEXE
 40
1.25
  9
$DIMTP
 40
0.0
  9
$DIMTM
 40
0.0
  9
$DIMTXT
 40
2.5
  9
$DIMCEN
 40
0.09
  9
$DIMTSZ
 40
0.0
  9
$DIMTOL
 70
     0
  9
$DIMLIM
 70
     0
  9
$DIMTIH
 70
     1
  9
$DIMTOH
 70
     1
  9
$DIMSE1
 70
     0
  9
$DIMSE2
 70
     0
  9
$DIMTAD
 70
     0
  9
$DIMZIN
 70
     8
  9
$DIMBLK
  1

  9
$DIMASO
 70
     1
  9
$DIMSHO
 70
     1
  9
$DIMPOST
  1

  9
$DIMAPOST
  1

  9
$DIMALT
 70
     0
  9
$DIMALTD
 70
     2
  9
$DIMALTF
 40
25.4
  9
$DIMLFAC
 40
1.0
  9
$DIMTOFL
 70
     0
  9
$DIMTVP
 40
0.0
  9
$DIMTIX
 70
     0
  9
$DIMSOXD
 70
     0
  9
$DIMSAH
 70
     0
  9
$DIMBLK1
  1

  9
$DIMBLK2
  1

  9
$DIMSTYLE
  2
Standard
  9
$DIMCLRD
 70
    18
  9
$DIMCLRE
 70
    18
  9
$DIMCLRT
 70
    18
  9
$DIMTFAC
 40
1.0
  9
$DIMGAP
 40
0.625
  9
$DIMJUST
 70
     0
  9
$DIMSD1
 70
     0
  9
$DIMSD2
 70
     0
  9
$DIMTOLJ
 70
     1
  9
$DIMTZIN
 70
     0
  9
$DIMALTZ
 70
     0
  9
$DIMALTTZ
 70
     0
  9
$DIMUPT
 70
     0
  9
$DIMDEC
 70
     4
  9
$DIMTDEC
 70
     4
  9
$DIMALTU
 70
     2
  9
$DIMALTTD
 70
     2
  9
$DIMTXSTY
  7
Standard
  9
$DIMAUNIT
 70
     0
  9
$DIMADEC
 70
     0
  9
$DIMALTRND
 40
0.0
  9
$DIMAZIN
 70
     2
  9
$DIMDSEP
 70
    46
  9
$DIMATFIT
 70
     3
  9
$DIMFRAC
 70
     0
  9
$DIMLDRBLK
  1

  9
$DIMLUNIT
 70
     2
  9
$DIMLWD
 70
    -2
  9
$DIMLWE
 70
    -2
  9
$DIMTMOVE
 70
     0
  9
$DIMFXL
 40
1.0
  9
$DIMFXLON
 70
     0
  9
$DIMJOGANG
 40
0.7853981633974483
  9
$DIMTFILL
 70
     0
  9
$DIMTFILLCLR
 70
     0
  9
$DIMARCSYM
 70
     0
  9
$DIMLTYPE
  6

  9
$DIMLTEX1
  6

  9
$DIMLTEX2
  6

  9
$DIMTXTDIRECTION
 70
     0
  9
$LUNITS
 70
     2
  9
$LUPREC
 70
     4
  9
$SKETCHINC
 40
0.1
  9
$FILLETRAD
 40
0.5
  9
$AUNITS
 70
     0
  9
$AUPREC
 70
     0
  9
$MENU
  1
.
  9
$ELEVATION
 40
0.0
  9
$PELEVATION
 40
0.0
  9
$THICKNESS
 40
0.0
  9
$LIMCHECK
 70
     0
  9
$CHAMFERA
 40
0.5
  9
$CHAMFERB
 40
0.5
  9
$CHAMFERC
 40
1.0
  9
$CHAMFERD
 40
0.0
  9
$SKPOLY
 70
     0
  9
$TDCREATE
 40
2456261.408714016
  9
$TDUCREATE
 40
2456261.367047349
  9
$TDUPDATE
 40
2456261.408714016
  9
$TDUUPDATE
 40
2456261.367047349
  9
$TDINDWG
 40
0.0000000116
  9
$TDUSRTIMER
 40
0.0000000116
  9
$USRTIMER
 70
     1
  9
$ANGBASE
 50
0.0
  9
$ANGDIR
 70
     0
  9
$PDMODE
 70
     0
  9
$PDSIZE
 40
0.0
  9
$PLINEWID
 40
0.0
  9
$SPLFRAME
 70
     0
  9
$SPLINETYPE
 70
     6
  9
$SPLINESEGS
 70
     8
  9
$HANDSEED
  5
C7
  9
$SURFTAB1
 70
     6
  9
$SURFTAB2
 70
     6
  9
$SURFTYPE
 70
     6
  9
$SURFU
 70
     6
  9
$SURFV
 70
     6
  9
$UCSBASE
  2

  9
$UCSNAME
  2

  9
$UCSORG
 10
0.0
 20
0.0
 30
0.0
  9
$UCSXDIR
 10
1.0
 20
0.0
 30
0.0
  9
$UCSYDIR
 10
0.0
 20
1.0
 30
0.0
  9
$UCSORTHOREF
  2

  9
$UCSORTHOVIEW
 70
     0
  9
$UCSORGTOP
 10
0.0
 20
0.0
 30
0.0
  9
$UCSORGBOTTOM
 10
0.0
 20
0.0
 30
0.0
  9
$UCSORGLEFT
 10
0.0
 20
0.0
 30
0.0
  9
$UCSORGRIGHT
 10
0.0
 20
0.0
 30
0.0
  9
$UCSORGFRONT
 10
0.0
 20
0.0
 30
0.0
  9
$UCSORGBACK
 10
0.0
 20
0.0
 30
0.0
  9
$PUCSBASE
  2

  9
$PUCSNAME
  2

  9
$PUCSORG
 10
0.0
 20
0.0
 30
0.0
  9
$PUCSXDIR
 10
1.0
 20
0.0
 30
0.0
  9
$PUCSYDIR
 10
0.0
 20
1.0
 30
0.0
  9
$PUCSORTHOREF
  2

  9
$PUCSORTHOVIEW
 70
     0
  9
$PUCSORGTOP
 10
0.0
 20
0.0
 30
0.0
  9
$PUCSORGBOTTOM
 10
0.0
 20
0.0
 30
0.0
  9
$PUCSORGLEFT
 10
0.0
 20
0.0
 30
0.0
  9
$PUCSORGRIGHT
 10
0.0
 20
0.0
 30
0.0
  9
$PUCSORGFRONT
 10
0.0
 20
0.0
 30
0.0
  9
$PUCSORGBACK
 10
0.0
 20
0.0
 30
0.0
  9
$USERI1
 70
     0
  9
$USERI2
 70
     0
  9
$USERI3
 70
     0
  9
$USERI4
 70
     0
  9
$USERI5
 70
     0
  9
$USERR1
 40
0.0
  9
$USERR2
 40
0.0
  9
$USERR3
 40
0.0
  9
$USERR4
 40
0.0
  9
$USERR5
 40
0.0
  9
$WORLDVIEW
 70
     1
  9
$SHADEDGE
 70
     3
  9
$SHADEDIF
 70
    70
  9
$TILEMODE
 70
     1
  9
$MAXACTVP
 70
    64
  9
$PINSBASE
 10
0.0
 20
0.0
 30
0.0
  9
$PLIMCHECK
 70
     0
  9
$PEXTMIN
 10
1.000000000000000E+20
 20
1.000000000000000E+20
 30
1.000000000000000E+20
  9
$PEXTMAX
 10
-1.000000000000000E+20
 20
-1.000000000000000E+20
 30
-1.000000000000000E+20
  9
$PLIMMIN
 10
0.0
 20
0.0
  9
$PLIMMAX
 10
12.0
 20
9.0
  9
$UNITMODE
 70
     0
  9
$VISRETAIN
 70
     1
  9
$PLINEGEN
 70
     0
  9
$PSLTSCALE
 70
     1
  9
$TREEDEPTH
 70
  3020
  9
$CMLSTYLE
  2
Standard
  9
$CMLJUST
 70
     0
  9
$CMLSCALE
 40
1.0
  9
$PROXYGRAPHICS
 70
     1
  9
$MEASUREMENT
 70
     1
  9
$CELWEIGHT
370
    -1
  9
$ENDCAPS
280
     0
  9
$JOINSTYLE
280
     0
  9
$LWDISPLAY
290
     0
  9
$INSUNITS
 70
     4
  9
$HYPERLINKBASE
  1

  9
$STYLESHEET
  1

  9
$XEDIT
290
     1
  9
$CEPSNTYPE
380
     0
  9
$PSTYLEMODE
290
     1
  9
$FINGERPRINTGUID
  2
{4D7B65B3-AE2D-47F6-A215-7D202C3322A1}
  9
$VERSIONGUID
  2
{FAEB1C32-E019-11D5-929B-00C0DF256EC4}
  9
$EXTNAMES
290
     1
  9
$PSVPSCALE
 40
0.0
  9
$OLESTARTUP
290
     0
  9
$SORTENTS
280
   127
  9
$INDEXCTL
280
     0
  9
$HIDETEXT
280
     1
  9
$XCLIPFRAME
280
     2
  9
$HALOGAP
280
     0
  9
$OBSCOLOR
 70
   257
  9
$OBSLTYPE
280
     0
  9
$INTERSECTIONDISPLAY
280
     0
  9
$INTERSECTIONCOLOR
 70
   257
  9
$DIMASSOC
280
     2
  9
$PROJECTNAME
  1

  9
$CAMERADISPLAY
290
     0
  9
$LENSLENGTH
 40
50.0
  9
$CAMERAHEIGHT
 40
0.0
  9
$STEPSPERSEC
 40
2.0
  9
$STEPSIZE
 40
6.0
  9
$3DDWFPREC
 40
2.0
  9
$PSOLWIDTH
 40
0.25
  9
$PSOLHEIGHT
 40
4.0
  9
$LOFTANG1
 40
1.570796326794897
  9
$LOFTANG2
 40
1.570796326794897
  9
$LOFTMAG1
 40
0.0
  9
$LOFTMAG2
 40
0.0
  9
$LOFTPARAM
 70
     7
  9
$LOFTNORMALS
280
     1
  9
$LATITUDE
 40
37.795
  9
$LONGITUDE
 40
-122.394
  9
$NORTHDIRECTION
 40
0.0
  9
$TIMEZONE
 70
 -8000
  9
$LIGHTGLYPHDISPLAY
280
     1
  9
$TILEMODELIGHTSYNCH
280
     1
  9
$SOLIDHIST
280
     1
  9
$SHOWHIST
280
     1
  9
$DWFFRAME
280
     2
  9
$DGNFRAME
280
     2
  9
$REALWORLDSCALE
290
     1
  9
$INTERFERECOLOR
 62
   256
  9
$CSHADOW
280
     0
  9
$SHADOWPLANELOCATION
 40
0.0
  0
ENDSEC
  0
SECTION
  2
CLASSES
  0
CLASS
  1
ACDBDICTIONARYWDFLT
  2
AcDbDictionaryWithDefault
  3
ObjectDBX Classes
 90
        0
 91
        4
280
     0
281
     0
  0
CLASS
  1
VISUALSTYLE
  2
AcDbVisualStyle
  3
ObjectDBX Classes
 90
     4095
 91
        4
280
     0
281
     0
  0
CLASS
  1
MATERIAL
  2
AcDbMaterial
  3
ObjectDBX Classes
 90
     1153
 91
        4
280
     0
281
     0
  0
ENDSEC
  0
SECTION
  2
TABLES
  0
TABLE
  2
VPORT
  5
66
330
0
100
AcDbSymbolTable
 70
     1
  0
VPORT
  5
86
330
66
100
AcDbSymbolTableRecord
100
AcDbViewportTableRecord
  2
*Active
 70
     0
 10
0.0
 20
0.0
 11
1.0
 21
1.0
 12
10.42990654205607
 22
4.5
 13
0.0
 23
0.0
 14
0.5
 24
0.5
 15
0.5
 25
0.5
 16
0.0
 26
0.0
 36
1.0
 17
0.0
 27
0.0
 37
0.0
 40
9.0
 41
1.972972972850329
 42
50.0
 43
0.0
 44
0.0
 50
0.0
 51
0.0
 71
     0
 72
   100
 73
     1
 74
     3
 75
     0
 76
     0
 77
     0
 78
     0
281
     0
 65
     1
110
0.0
120
0.0
130
0.0
111
1.0
121
0.0
131
0.0
112
0.0
122
1.0
132
0.0
 79
     0
146
0.0
 60
     3
 61
     5
292
     1
282
     1
141
0.0
142
0.0
 63
   250
  0
ENDTAB
  0
TABLE
  2
LTYPE
  5
63
330
0
100
AcDbSymbolTable
 70
    19
  0
LTYPE
  5
71
330
63
100
AcDbSymbolTableRecord
100
AcDbLinetypeTableRecord
  2
ByBlock
 70
     0
  3

 72
    65
 73
     0
 40
0.0
  0
LTYPE
  5
72
330
63
100
AcDbSymbolTableRecord
100
AcDbLinetypeTableRecord
  2
ByLayer
 70
     0
  3

 72
    65
 73
     0
 40
0.0
  0
LTYPE
  5
73
330
63
100
AcDbSymbolTableRecord
100
AcDbLinetypeTableRecord
  2
Continuous
 70
     0
  3
Solid line
 72
    65
 73
     0
 40
0.0
  0
LTYPE
  5
B3
330
63
100
AcDbSymbolTableRecord
100
AcDbLinetypeTableRecord
  2
BORDER
 70
     0
  3

 72
    65
 73
     6
 40
42.00000000000001
 49
12.0
 74
     0
 49
-6.0
 74
     0
 49
12.0
 74
     0
 49
-5.95
 74
     0
 49
0.1
 74
     0
 49
-5.95
 74
     0
  0
LTYPE
  5
B4
330
63
100
AcDbSymbolTableRecord
100
AcDbLinetypeTableRecord
  2
BORDER2
 70
     0
  3

 72
    65
 73
     6
 40
21.0
 49
6.0
 74
     0
 49
-3.0
 74
     0
 49
6.0
 74
     0
 49
-2.95
 74
     0
 49
0.1
 74
     0
 49
-2.95
 74
     0
  0
LTYPE
  5
B5
330
63
100
AcDbSymbolTableRecord
100
AcDbLinetypeTableRecord
  2
BORDERX2
 70
     0
  3

 72
    65
 73
     6
 40
84.0
 49
24.0
 74
     0
 49
-12.0
 74
     0
 49
24.0
 74
     0
 49
-11.95
 74
     0
 49
0.1
 74
     0
 49
-11.95
 74
     0
  0
LTYPE
  5
B6
330
63
100
AcDbSymbolTableRecord
100
AcDbLinetypeTableRecord
  2
CENTER
 70
     0
  3

 72
    65
 73
     4
 40
50.0
 49
32.0
 74
     0
 49
-6.0
 74
     0
 49
6.0
 74
     0
 49
-6.0
 74
     0
  0
LTYPE
  5
B7
330
63
100
AcDbSymbolTableRecord
100
AcDbLinetypeTableRecord
  2
CENTER2
 70
     0
  3

 72
    65
 73
     4
 40
25.0
 49
16.0
 74
     0
 49
-3.0
 74
     0
 49
3.0
 74
     0
 49
-3.0
 74
     0
  0
LTYPE
  5
B8
330
63
100
AcDbSymbolTableRecord
100
AcDbLinetypeTableRecord
  2
CENTERX2
 70
     0
  3

 72
    65
 73
     4
 40
100.0
 49
64.0
 74
     0
 49
-12.0
 74
     0
 49
12.0
 74
     0
 49
-12.0
 74
     0
  0
LTYPE
  5
B9
330
63
100
AcDbSymbolTableRecord
100
AcDbLinetypeTableRecord
  2
DASHDOT
 70
     0
  3

 72
    65
 73
     4
 40
24.0
 49
12.0
 74
     0
 49
-5.95
 74
     0
 49
0.1
 74
     0
 49
-5.95
 74
     0
  0
LTYPE
  5
BA
330
63
100
AcDbSymbolTableRecord
100
AcDbLinetypeTableRecord
  2
DASHDOT2
 70
     0
  3

 72
    65
 73
     4
 40
12.0
 49
6.0
 74
     0
 49
-2.95
 74
     0
 49
0.1
 74
     0
 49
-2.95
 74
     0
  0
LTYPE
  5
BB
330
63
100
AcDbSymbolTableRecord
100
AcDbLinetypeTableRecord
  2
DASHDOTX2
 70
     0
  3

 72
    65
 73
     4
 40
48.0
 49
24.0
 74
     0
 49
-11.95
 74
     0
 49
0.1
 74
     0
 49
-11.95
 74
     0
  0
LTYPE
  5
BC
330
63
100
AcDbSymbolTableRecord
100
AcDbLinetypeTableRecord
  2
DASHED
 70
     0
  3

 72
    65
 73
     2
 40
18.0
 49
12.0
 74
     0
 49
-6.0
 74
     0
  0
LTYPE
  5
BD
330
63
100
AcDbSymbolTableRecord
100
AcDbLinetypeTableRecord
  2
DASHED2
 70
     0
  3

 72
    65
 73
     2
 40
9.0
 49
6.0
 74
     0
 49
-3.0
 74
     0
  0
LTYPE
  5
BE
330
63
100
AcDbSymbolTableRecord
100
AcDbLinetypeTableRecord
  2
DASHEDX2
 70
     0
  3

 72
    65
 73
     2
 40
36.0
 49
24.0
 74
     0
 49
-12.0
 74
     0
  0
LTYPE
  5
BF
330
63
100
AcDbSymbolTableRecord
100
AcDbLinetypeTableRecord
  2
DIVIDE
 70
     0
  3

 72
    65
 73
     6
 40
29.99999999999999
 49
12.0
 74
     0
 49
-5.9
 74
     0
 49
0.15
 74
     0
 49
-5.9
 74
     0
 49
0.15
 74
     0
 49
-5.9
 74
     0
  0
LTYPE
  5
C0
330
63
100
AcDbSymbolTableRecord
100
AcDbLinetypeTableRecord
  2
DIVIDE2
 70
     0
  3

 72
    65
 73
     6
 40
15.0
 49
6.0
 74
     0
 49
-2.9
 74
     0
 49
0.15
 74
     0
 49
-2.9
 74
     0
 49
0.15
 74
     0
 49
-2.9
 74
     0
  0
LTYPE
  5
C1
330
63
100
AcDbSymbolTableRecord
100
AcDbLinetypeTableRecord
  2
DIVIDEX2
 70
     0
  3

 72
    65
 73
     6
 40
59.99999999999999
 49
24.0
 74
     0
 49
-11.9
 74
     0
 49
0.15
 74
     0
 49
-11.9
 74
     0
 49
0.15
 74
     0
 49
-11.9
 74
     0
  0
LTYPE
  5
C2
330
63
100
AcDbSymbolTableRecord
100
AcDbLinetypeTableRecord
  2
DOT
 70
     0
  3

 72
    65
 73
     2
 40
6.3
 49
0.1
 74
     0
 49
-6.2
 74
     0
  0
LTYPE
  5
C3
330
63
100
AcDbSymbolTableRecord
100
AcDbLinetypeTableRecord
  2
DOT2
 70
     0
  3

 72
    65
 73
     2
 40
3.2
 49
0.1
 74
     0
 49
-3.1
 74
     0
  0
LTYPE
  5
C4
330
63
100
AcDbSymbolTableRecord
100
AcDbLinetypeTableRecord
  2
DOTX2
 70
     0
  3

 72
    65
 73
     2
 40
12.5
 49
0.1
 74
     0
 49
-12.4
 74
     0
  0
ENDTAB
  0
TABLE
  2
LAYER
  5
60
330
0
100
AcDbSymbolTable
 70
     1
  0
LAYER
  5
6E
330
60
100
AcDbSymbolTableRecord
100
AcDbLayerTableRecord
  2
0
 70
     0
 62
     7
420
 16777215
  6
Continuous
370
    25
390
6D
347
9B
  0
ENDTAB
  0
TABLE
  2
STYLE
  5
61
330
0
100
AcDbSymbolTable
 70
     1
  0
STYLE
  5
6F
330
61
100
AcDbSymbolTableRecord
100
AcDbTextStyleTableRecord
  2
Standard
 70
     0
 40
0.0
 41
1.0
 50
0.0
 71
     0
 42
0.2
  3
txt
  4

  0
ENDTAB
  0
TABLE
  2
VIEW
  5
64
330
0
100
AcDbSymbolTable
 70
     0
  0
ENDTAB
  0
TABLE
  2
UCS
  5
65
330
0
100
AcDbSymbolTable
 70
     0
  0
ENDTAB
  0
TABLE
  2
APPID
  5
67
330
0
100
AcDbSymbolTable
 70
     2
  0
APPID
  5
70
330
67
100
AcDbSymbolTableRecord
100
AcDbRegAppTableRecord
  2
ACAD
 70
     0
  0
APPID
  5
9C
330
67
100
AcDbSymbolTableRecord
100
AcDbRegAppTableRecord
  2
QCAD
 70
     0
  0
ENDTAB
  0
TABLE
  2
DIMSTYLE
  5
68
330
0
100
AcDbSymbolTable
 70
     2
100
AcDbDimStyleTable
  0
DIMSTYLE
105
84
330
68
100
AcDbSymbolTableRecord
100
AcDbDimStyleTableRecord
  2
Standard
 70
     0
178
     0
340
6F
  0
DIMSTYLE
105
B2
330
68
100
AcDbSymbolTableRecord
100
AcDbDimStyleTableRecord
  2
QCADDimStyle
 70
     0
 41
2.5
 42
0.625
 44
1.25
 73
     0
 77
     1
140
2.5
147
0.625
178
     0
340
6F
  0
ENDTAB
  0
TABLE
  2
BLOCK_RECORD
  5
5F
330
0
100
AcDbSymbolTable
 70
     1
  0
BLOCK_RECORD
  5
7C
330
5F
100
AcDbSymbolTableRecord
100
AcDbBlockTableRecord
  2
*Model_Space
340
7F
 70
     0
280
     1
281
     0
  0
BLOCK_RECORD
  5
78
330
5F
100
AcDbSymbolTableRecord
100
AcDbBlockTableRecord
  2
*Paper_Space
340
7B
 70
     0
280
     1
281
     0
  0
BLOCK_RECORD
  5
80
330
5F
100
AcDbSymbolTableRecord
100
AcDbBlockTableRecord
  2
*Paper_Space0
340
83
 70
     0
280
     1
281
     0
  0
ENDTAB
  0
ENDSEC
  0
SECTION
  2
BLOCKS
  0
BLOCK
  5
7D
330
7C
100
AcDbEntity
  8
0
100
AcDbBlockBegin
  2
*Model_Space
 70
     0
 10
0.0
 20
0.0
 30
0.0
  3
*Model_Space
  1

  0
ENDBLK
  5
7E
330
7C
100
AcDbEntity
  8
0
100
AcDbBlockEnd
  0
BLOCK
  5
79
330
78
100
AcDbEntity
 67
     1
  8
0
100
AcDbBlockBegin
  2
*Paper_Space
 70
     0
 10
0.0
 20
0.0
 30
0.0
  3
*Paper_Space
  1

  0
ENDBLK
  5
7A
330
78
100
AcDbEntity
 67
     1
  8
0
100
AcDbBlockEnd
  0
BLOCK
  5
81
330
80
100
AcDbEntity
  8
0
100
AcDbBlockBegin
  2
*Paper_Space0
 70
     0
 10
0.0
 20
0.0
 30
0.0
  3
*Paper_Space0
  1

  0
ENDBLK
  5
82
330
80
100
AcDbEntity
  8
0
100
AcDbBlockEnd
  0
ENDSEC
  0
SECTION
  2
ENTITIES
  0
LINE
  5
1F
330
7C
100
AcDbEntity
  8
0
100
AcDbLine
 10
22.2
 20
135.0
 30
0.0
 11
22.2
 21
135.0
 31
0.0
  0
LINE
  5
23
330
7C
100
AcDbEntity
  8
0
100
AcDbLine
 10
135.2
 20
135.0
 30
0.0
 11
135.2
 21
135.0
 31
0.0
  0
SPLINE
  5
2F
330
7C
100
AcDbEntity
  8
0
100
AcDbSpline
210
0.0
220
0.0
230
1.0
 70
     8
 71
     3
 72
    11
 73
     7
 74
     5
 42
0.0000000001
 43
0.0000000001
 44
0.0
 40
0.0
 40
0.0
 40
0.0
 40
0.0
 40
39.61986069352126
 40
80.14588656777724
 40
110.0637262942913
 40
158.7187164182287
 40
158.7187164182287
 40
158.7187164182287
 40
158.7187164182287
 10
22.2
 20
135.0
 30
0.0
 10
24.18910630908918
 20
148.1464326517706
 30
0.0
 10
28.21281274896518
 20
174.7399764360379
 30
0.0
 10
36.19649210805117
 20
209.3470203682384
 30
0.0
 10
50.49546896005103
 20
250.9861424372952
 30
0.0
 10
80.3644195839463
 20
250.5089920511001
 30
0.0
 10
98.86029787144122
 20
250.2135241727999
 30
0.0
 11
22.2
 21
135.0
 31
0.0
 11
28.60471438005504
 21
174.0987595082497
 31
0.0
 11
38.07394519845928
 21
213.5029780751576
 31
0.0
 11
51.20868472076191
 21
240.3833752370793
 31
0.0
 11
98.86029787144122
 21
250.2135241727999
 31
0.0
  0
SPLINE
  5
31
330
7C
100
AcDbEntity
  8
0
100
AcDbSpline
210
0.0
220
0.0
230
1.0
 70
     8
 71
     3
 72
     9
 73
     5
 74
     3
 42
0.0000000001
 43
0.0000000001
 44
0.0
 40
0.0
 40
0.0
 40
0.0
 40
0.0
 40
65.0986584335778
 40
116.8514922919565
 40
116.8514922919565
 40
116.8514922919565
 40
116.8514922919565
 10
135.2
 20
135.0
 30
0.0
 10
132.476085877286
 20
156.5396619185665
 30
0.0
 10
127.5866851158399
 20
195.2031566696426
 30
0.0
 10
119.5329546705804
 20
233.3281780201704
 30
0.0
 10
115.9660051563005
 20
250.2135241727999
 30
0.0
 11
135.2
 21
135.0
 31
0.0
 11
126.0461540920211
 21
199.4518613768804
 31
0.0
 11
115.9660051563005
 21
250.2135241727999
 31
0.0
  0
SPLINE
  5
32
330
7C
100
AcDbEntity
  8
0
100
AcDbSpline
210
0.0
220
0.0
230
1.0
 70
     8
 71
     3
 72
    11
 73
     7
 74
     5
 42
0.0000000001
 43
0.0000000001
 44
0.0
 12
-5.263279524148889E-17
 22
1.0
 32
0.0
 13
-5.263279524148889E-17
 23
1.0
 33
0.0
 40
0.0
 40
0.0
 40
0.0
 40
0.0
 40
39.61986069352127
 40
80.14588656777724
 40
110.0637262942914
 40
158.7187164182287
 40
158.7187164182287
 40
158.7187164182287
 40
158.7187164182287
 10
22.2
 20
135.0
 30
0.0
 10
22.2
 20
148.2066202311738
 30
0.0
 10
28.68751209073066
 20
83.01977262835968
 30
0.0
 10
37.54367462115204
 20
61.74513472029852
 30
0.0
 10
45.47527114810045
 20
22.38944194896724
 30
0.0
 10
98.86029787144122
 20
3.568145785887623
 30
0.0
 10
98.86029787144122
 20
19.78647582720008
 30
0.0
 11
22.2
 21
135.0
 31
0.0
 11
28.60471438005505
 21
95.90124049175029
 31
0.0
 11
38.07394519845928
 21
56.49702192484239
 31
0.0
 11
51.20868472076192
 21
29.61662476292071
 31
0.0
 11
98.86029787144122
 21
19.78647582720008
 31
0.0
  0
SPLINE
  5
33
330
7C
100
AcDbEntity
  8
0
100
AcDbSpline
210
0.0
220
0.0
230
1.0
 70
     8
 71
     3
 72
     9
 73
     5
 74
     3
 42
0.0000000001
 43
0.0000000001
 44
0.0
 12
0.0
 22
1.0
 32
0.0
 13
0.0
 23
1.0
 33
0.0
 40
0.0
 40
0.0
 40
0.0
 40
0.0
 40
65.09865843357777
 40
116.8514922919565
 40
116.8514922919565
 40
116.8514922919565
 40
116.8514922919565
 10
135.2
 20
135.0
 30
0.0
 10
135.2
 20
156.6995528111926
 30
0.0
 10
128.7473322619635
 20
79.07906860891836
 30
0.0
 10
115.9660051563005
 20
2.535531207740519
 30
0.0
 10
115.9660051563005
 20
19.78647582720009
 30
0.0
 11
135.2
 21
135.0
 31
0.0
 11
126.0461540920211
 21
70.54813862311963
 31
0.0
 11
115.9660051563005
 21
19.78647582720009
 31
0.0
  0
LINE
  5
34
330
7C
100
AcDbEntity
  8
0
100
AcDbLine
 10
-134.9565050860359
 20
21.92468923780751
 30
0.0
 11
-39.95650508603595
 21
21.9246892378075
 31
0.0
  0
LINE
  5
35
330
7C
100
AcDbEntity
  8
0
100
AcDbLine
 10
-134.9565050860359
 20
252.3517375834073
 30
0.0
 11
-144.8861050860359
 21
137.1382134106074
 31
0.0
  0
LINE
  5
36
330
7C
100
AcDbEntity
  8
0
100
AcDbLine
 10
-144.8861050860359
 20
137.1382134106074
 30
0.0
 11
-144.8861050860359
 21
137.1382134106074
 31
0.0
  0
LINE
  5
37
330
7C
100
AcDbEntity
  8
0
100
AcDbLine
 10
-144.8861050860359
 20
137.1382134106074
 30
0.0
 11
-134.9565050860359
 21
21.92468923780751
 31
0.0
  0
LINE
  5
38
330
7C
100
AcDbEntity
  8
0
100
AcDbLine
 10
-134.9565050860359
 20
21.92468923780751
 30
0.0
 11
-39.95650508603595
 21
21.9246892378075
 31
0.0
  0
LINE
  5
39
330
7C
100
AcDbEntity
  8
0
100
AcDbLine
 10
-39.95650508603595
 20
21.9246892378075
 30
0.0
 11
-31.88610508603585
 21
137.1382134106074
 31
0.0
  0
LINE
  5
3A
330
7C
100
AcDbEntity
  8
0
100
AcDbLine
 10
-31.88610508603585
 20
137.1382134106074
 30
0.0
 11
-31.88610508603585
 21
137.1382134106074
 31
0.0
  0
LINE
  5
3B
330
7C
100
AcDbEntity
  8
0
100
AcDbLine
 10
-31.88610508603585
 20
137.1382134106074
 30
0.0
 11
-39.95650508603595
 21
252.3517375834073
 31
0.0
  0
SPLINE
  5
3C
330
7C
100
AcDbEntity
  8
0
100
AcDbSpline
210
0.0
220
0.0
230
1.0
 70
     8
 71
     3
 72
    11
 73
     7
 74
     5
 42
0.0000000001
 43
0.0000000001
 44
0.0
 40
0.0
 40
0.0
 40
0.0
 40
0.0
 40
39.61986069352128
 40
80.14588656777727
 40
110.0637262942914
 40
158.7187164182288
 40
158.7187164182288
 40
158.7187164182288
 40
158.7187164182288
 10
-144.8861050860359
 20
137.1382134106074
 30
0.0
 10
-142.8969987769467
 20
150.284646062378
 30
0.0
 10
-138.8732923370706
 20
176.8781898466453
 30
0.0
 10
-130.8896129779847
 20
211.4852337788458
 30
0.0
 10
-116.5906361259848
 20
253.1243558479026
 30
0.0
 10
-86.72168550208949
 20
252.6472054617074
 30
0.0
 10
-68.22580721459462
 20
252.3517375834073
 30
0.0
 11
-144.8861050860359
 21
137.1382134106074
 31
0.0
 11
-138.4813907059808
 21
176.2369729188571
 31
0.0
 11
-129.0121598875766
 21
215.641191485765
 31
0.0
 11
-115.8774203652739
 21
242.5215886476867
 31
0.0
 11
-68.22580721459462
 21
252.3517375834073
 31
0.0
  0
LINE
  5
3D
330
7C
100
AcDbEntity
  8
0
100
AcDbLine
 10
-77.08610508603586
 20
22.13821341060742
 30
0.0
 11
-77.08610508603584
 21
252.1382134106074
 31
0.0
  0
LINE
  5
3E
330
7C
100
AcDbEntity
  8
0
100
AcDbLine
 10
-77.08610508603584
 20
137.1382134106074
 30
0.0
 11
-31.88610508603585
 21
137.1382134106074
 31
0.0
  0
SPLINE
  5
3F
330
7C
100
AcDbEntity
  8
0
100
AcDbSpline
210
0.0
220
0.0
230
1.0
 70
     8
 71
     3
 72
     9
 73
     5
 74
     3
 42
0.0000000001
 43
0.0000000001
 44
0.0
 40
0.0
 40
0.0
 40
0.0
 40
0.0
 40
65.0986584335778
 40
116.8514922919565
 40
116.8514922919565
 40
116.8514922919565
 40
116.8514922919565
 10
-31.88610508603585
 20
137.1382134106074
 30
0.0
 10
-34.6100192087498
 20
158.6778753291739
 30
0.0
 10
-39.499419970196
 20
197.34137008025
 30
0.0
 10
-47.55315041545545
 20
235.4663914307778
 30
0.0
 10
-51.12009992973537
 20
252.3517375834073
 30
0.0
 11
-31.88610508603585
 21
137.1382134106074
 31
0.0
 11
-41.03995099401476
 21
201.5900747874878
 31
0.0
 11
-51.12009992973537
 21
252.3517375834073
 31
0.0
  0
LINE
  5
40
330
7C
100
AcDbEntity
  8
0
100
AcDbLine
 10
-77.08610508603584
 20
137.1382134106074
 30
0.0
 11
-144.8861050860359
 21
137.1382134106074
 31
0.0
  0
SPLINE
  5
41
330
7C
100
AcDbEntity
  8
0
100
AcDbSpline
210
0.0
220
0.0
230
1.0
 70
     8
 71
     3
 72
    11
 73
     7
 74
     5
 42
0.0000000001
 43
0.0000000001
 44
0.0
 12
-5.263279524148889E-17
 22
1.0
 32
0.0
 13
-5.263279524148889E-17
 23
1.0
 33
0.0
 40
0.0
 40
0.0
 40
0.0
 40
0.0
 40
39.61986069352125
 40
80.14588656777723
 40
110.0637262942914
 40
158.7187164182287
 40
158.7187164182287
 40
158.7187164182287
 40
158.7187164182287
 10
-144.8861050860359
 20
137.1382134106074
 30
0.0
 10
-144.8861050860359
 20
150.3448336417812
 30
0.0
 10
-138.3985929953051
 20
85.1579860389671
 30
0.0
 10
-129.5424304648839
 20
63.88334813090594
 30
0.0
 10
-121.6108339379354
 20
24.52765535957469
 30
0.0
 10
-68.22580721459462
 20
5.706359196495054
 30
0.0
 10
-68.22580721459462
 20
21.9246892378075
 30
0.0
 11
-144.8861050860359
 21
137.1382134106074
 31
0.0
 11
-138.4813907059808
 21
98.0394539023577
 31
0.0
 11
-129.0121598875766
 21
58.63523533544981
 31
0.0
 11
-115.8774203652739
 21
31.75483817352813
 31
0.0
 11
-68.22580721459462
 21
21.9246892378075
 31
0.0
  0
LINE
  5
42
330
7C
100
AcDbEntity
  8
0
100
AcDbLine
 10
-134.9565050860359
 20
252.3517375834073
 30
0.0
 11
-39.95650508603595
 21
252.3517375834073
 31
0.0
  0
SPLINE
  5
43
330
7C
100
AcDbEntity
  8
0
100
AcDbSpline
210
0.0
220
0.0
230
1.0
 70
     8
 71
     3
 72
     9
 73
     5
 74
     3
 42
0.0000000001
 43
0.0000000001
 44
0.0
 12
0.0
 22
1.0
 32
0.0
 13
0.0
 23
1.0
 33
0.0
 40
0.0
 40
0.0
 40
0.0
 40
0.0
 40
65.09865843357774
 40
116.8514922919564
 40
116.8514922919564
 40
116.8514922919564
 40
116.8514922919564
 10
-31.88610508603585
 20
137.1382134106074
 30
0.0
 10
-31.88610508603585
 20
158.8377662218
 30
0.0
 10
-38.33877282407238
 20
81.21728201952575
 30
0.0
 10
-51.12009992973537
 20
4.673744618347939
 30
0.0
 10
-51.12009992973537
 20
21.92468923780751
 30
0.0
 11
-31.88610508603585
 21
137.1382134106074
 31
0.0
 11
-41.03995099401476
 21
72.68635203372705
 31
0.0
 11
-51.12009992973537
 21
21.92468923780751
 31
0.0
  0
LINE
  5
44
330
7C
100
AcDbEntity
  8
0
100
AcDbLine
 10
98.86029787144122
 20
19.78647582720008
 30
0.0
 11
115.9660051563005
 21
19.78647582720009
 31
0.0
  0
LINE
  5
47
330
7C
100
AcDbEntity
  8
0
100
AcDbLine
 10
115.9660051563005
 20
250.2135241727999
 30
0.0
 11
98.86029787144122
 21
250.2135241727999
 31
0.0
  0
LINE
  5
48
330
7C
100
AcDbEntity
  8
0
100
AcDbLine
 10
-420.7641683532968
 20
240.138428245897
 30
0.0
 11
-325.7641683532969
 21
240.138428245897
 31
0.0
  0
LINE
  5
4A
330
7C
100
AcDbEntity
  8
0
100
AcDbLine
 10
-420.7641683532968
 20
9.711379900297175
 30
0.0
 11
-325.7641683532969
 21
9.711379900297166
 31
0.0
  0
LINE
  5
4B
330
7C
100
AcDbEntity
  8
0
100
AcDbLine
 10
-420.7641683532968
 20
240.138428245897
 30
0.0
 11
-430.6937683532968
 21
124.9249040730971
 31
0.0
  0
LINE
  5
4C
330
7C
100
AcDbEntity
  8
0
100
AcDbLine
 10
-430.6937683532968
 20
124.9249040730971
 30
0.0
 11
-430.6937683532968
 21
124.9249040730971
 31
0.0
  0
LINE
  5
4D
330
7C
100
AcDbEntity
  8
0
100
AcDbLine
 10
-430.6937683532968
 20
124.9249040730971
 30
0.0
 11
-420.7641683532968
 21
9.711379900297175
 31
0.0
  0
LINE
  5
4E
330
7C
100
AcDbEntity
  8
0
100
AcDbLine
 10
-420.7641683532968
 20
9.711379900297175
 30
0.0
 11
-325.7641683532969
 21
9.71137990029716
 31
0.0
  0
LINE
  5
4F
330
7C
100
AcDbEntity
  8
0
100
AcDbLine
 10
-325.7641683532969
 20
9.71137990029716
 30
0.0
 11
-317.6937683532968
 21
124.9249040730971
 31
0.0
  0
LINE
  5
50
330
7C
100
AcDbEntity
  8
0
100
AcDbLine
 10
-317.6937683532968
 20
124.9249040730971
 30
0.0
 11
-317.6937683532968
 21
124.9249040730971
 31
0.0
  0
LINE
  5
51
330
7C
100
AcDbEntity
  8
0
100
AcDbLine
 10
-317.6937683532968
 20
124.9249040730971
 30
0.0
 11
-325.7641683532969
 21
240.138428245897
 31
0.0
  0
SPLINE
  5
52
330
7C
100
AcDbEntity
  8
0
100
AcDbSpline
210
0.0
220
0.0
230
1.0
 70
     8
 71
     3
 72
    11
 73
     7
 74
     5
 42
0.0000000001
 43
0.0000000001
 44
0.0
 40
0.0
 40
0.0
 40
0.0
 40
0.0
 40
39.61986069352128
 40
80.14588656777725
 40
110.0637262942914
 40
158.7187164182287
 40
158.7187164182287
 40
158.7187164182287
 40
158.7187164182287
 10
-430.6937683532968
 20
124.9249040730971
 30
0.0
 10
-428.7046620442076
 20
138.0713367248676
 30
0.0
 10
-424.6809556043315
 20
164.6648805091349
 30
0.0
 10
-416.6972762452457
 20
199.2719244413355
 30
0.0
 10
-402.3982993932457
 20
240.9110465103922
 30
0.0
 10
-372.5293487693503
 20
240.4338961241971
 30
0.0
 10
-354.0334704818556
 20
240.138428245897
 30
0.0
 11
-430.6937683532968
 21
124.9249040730971
 31
0.0
 11
-424.2890539732417
 21
164.0236635813468
 31
0.0
 11
-414.8198231548375
 21
203.4278821482547
 31
0.0
 11
-401.6850836325349
 21
230.3082793101764
 31
0.0
 11
-354.0334704818556
 21
240.138428245897
 31
0.0
  0
LINE
  5
53
330
7C
100
AcDbEntity
  8
0
100
AcDbLine
 10
-362.8937683532968
 20
9.924904073097082
 30
0.0
 11
-362.8937683532968
 21
239.9249040730971
 31
0.0
  0
LINE
  5
54
330
7C
100
AcDbEntity
  8
0
100
AcDbLine
 10
-362.8937683532968
 20
124.9249040730971
 30
0.0
 11
-317.6937683532968
 21
124.9249040730971
 31
0.0
  0
LINE
  5
56
330
7C
100
AcDbEntity
  8
0
100
AcDbLine
 10
-362.8937683532968
 20
124.9249040730971
 30
0.0
 11
-430.6937683532968
 21
124.9249040730971
 31
0.0
  0
SPLINE
  5
57
330
7C
100
AcDbEntity
  8
0
100
AcDbSpline
210
0.0
220
0.0
230
1.0
 70
     8
 71
     3
 72
    11
 73
     7
 74
     5
 42
0.0000000001
 43
0.0000000001
 44
0.0
 12
-5.263279524148889E-17
 22
1.0
 32
0.0
 13
-5.263279524148889E-17
 23
1.0
 33
0.0
 40
0.0
 40
0.0
 40
0.0
 40
0.0
 40
39.61986069352125
 40
80.14588656777723
 40
110.0637262942913
 40
158.7187164182287
 40
158.7187164182287
 40
158.7187164182287
 40
158.7187164182287
 10
-430.6937683532968
 20
124.9249040730971
 30
0.0
 10
-430.6937683532968
 20
138.1315243042708
 30
0.0
 10
-424.2062562625661
 20
72.94467670145676
 30
0.0
 10
-415.3500937321448
 20
51.6700387933956
 30
0.0
 10
-407.4184972051963
 20
12.31434602206434
 30
0.0
 10
-354.0334704818556
 20
-6.506950141015281
 30
0.0
 10
-354.0334704818556
 20
9.71137990029716
 30
0.0
 11
-430.6937683532968
 21
124.9249040730971
 31
0.0
 11
-424.2890539732417
 21
85.82614456484737
 31
0.0
 11
-414.8198231548375
 21
46.42192599793947
 31
0.0
 11
-401.6850836325349
 21
19.54152883601779
 31
0.0
 11
-354.0334704818556
 21
9.71137990029716
 31
0.0
  0
SPLINE
  5
5D
330
7C
100
AcDbEntity
  8
0
100
AcDbSpline
210
0.0
220
0.0
230
1.0
 70
     8
 71
     3
 72
    10
 73
     6
 74
     4
 42
0.0000000001
 43
0.0000000001
 44
0.0
 40
0.0
 40
0.0
 40
0.0
 40
0.0
 40
98.55284090138268
 40
108.3585822311103
 40
120.9434211053467
 40
120.9434211053467
 40
120.9434211053467
 40
120.9434211053467
 10
-317.6937683532968
 20
124.9249040730971
 30
0.0
 10
-321.969216190926
 20
156.6280463395072
 30
0.0
 10
-326.6700595339619
 20
191.4855655833912
 30
0.0
 10
-330.5169036558243
 20
234.0828533662051
 30
0.0
 10
-337.5582167637825
 20
237.9595141353497
 30
0.0
 10
-341.515853864719
 20
240.138428245897
 30
0.0
 11
-317.6937683532968
 21
124.9249040730971
 31
0.0
 11
-329.4825647099202
 21
222.770122301661
 31
0.0
 11
-331.6423858402687
 21
232.3350444503473
 31
0.0
 11
-341.515853864719
 21
240.138428245897
 31
0.0
  0
ENDSEC
  0
SECTION
  2
OBJECTS
  0
DICTIONARY
  5
6A
330
0
100
AcDbDictionary
281
     1
  3
ACAD_GROUP
350
6B
  3
ACAD_LAYOUT
350
77
  3
ACAD_MATERIAL
350
98
  3
ACAD_MLEADERSTYLE
350
C6
  3
ACAD_MLINESTYLE
350
74
  3
ACAD_PLOTSETTINGS
350
76
  3
ACAD_PLOTSTYLENAME
350
6C
  3
ACAD_TABLESTYLE
350
C5
  3
ACAD_VISUALSTYLE
350
87
  3
QCAD_OBJECTS
350
9D
  0
DICTIONARY
  5
6B
102
{ACAD_REACTORS
330
6A
102
}
330
6A
100
AcDbDictionary
281
     1
  0
DICTIONARY
  5
77
102
{ACAD_REACTORS
330
6A
102
}
330
6A
100
AcDbDictionary
281
     1
  3
Layout1
350
7B
  3
Layout2
350
83
  3
Model
350
7F
  0
DICTIONARY
  5
98
102
{ACAD_REACTORS
330
6A
102
}
330
6A
100
AcDbDictionary
281
     1
  3
ByBlock
350
9A
  3
ByLayer
350
99
  3
Global
350
9B
  0
DICTIONARY
  5
C6
102
{ACAD_REACTORS
330
6A
102
}
330
6A
100
AcDbDictionary
281
     1
  0
DICTIONARY
  5
74
102
{ACAD_REACTORS
330
6A
102
}
330
6A
100
AcDbDictionary
281
     1
  3
Standard
350
75
  0
DICTIONARY
  5
76
102
{ACAD_REACTORS
330
6A
102
}
330
6A
100
AcDbDictionary
281
     1
  0
ACDBDICTIONARYWDFLT
  5
6C
102
{ACAD_REACTORS
330
6A
102
}
330
6A
100
AcDbDictionary
281
     1
  3
Normal
350
6D
100
AcDbDictionaryWithDefault
340
6D
  0
DICTIONARY
  5
C5
102
{ACAD_REACTORS
330
6A
102
}
330
6A
100
AcDbDictionary
281
     1
  0
DICTIONARY
  5
87
102
{ACAD_REACTORS
330
6A
102
}
330
6A
100
AcDbDictionary
281
     1
  3
2dWireframe
350
8C
  3
3D Hidden
350
8E
  3
3dWireframe
350
8D
  3
Basic
350
8F
  3
Brighten
350
93
  3
ColorChange
350
97
  3
Conceptual
350
91
  3
Dim
350
92
  3
Facepattern
350
96
  3
Flat
350
88
  3
FlatWithEdges
350
89
  3
Gouraud
350
8A
  3
GouraudWithEdges
350
8B
  3
Linepattern
350
95
  3
Realistic
350
90
  3
Thicken
350
94
  0
DICTIONARY
  5
9D
102
{ACAD_REACTORS
330
6A
102
}
330
6A
100
AcDbDictionary
281
     1
  3
Grid/DisplayGrid
350
AD
  3
Grid/GridSpacingX
350
A6
  3
Grid/GridSpacingY
350
A7
  3
Grid/MetaGridSpacingX
350
A1
  3
Grid/MetaGridSpacingY
350
A4
  3
MultiPageSettings/Columns
350
A5
  3
MultiPageSettings/GlueMarginsBottom
350
AA
  3
MultiPageSettings/GlueMarginsLeft
350
A8
  3
MultiPageSettings/GlueMarginsRight
350
9E
  3
MultiPageSettings/GlueMarginsTop
350
B1
  3
MultiPageSettings/PrintCropMarks
350
A0
  3
MultiPageSettings/Rows
350
A9
  3
PageSettings/OffsetX
350
AF
  3
PageSettings/OffsetY
350
B0
  3
PageSettings/PageOrientation
350
9F
  3
PageSettings/PaperHeight
350
A2
  3
PageSettings/PaperWidth
350
AB
  3
PageSettings/Scale
350
A3
  3
PageSettings/ShowPaperBorders
350
AE
  3
UnitSettings/PaperUnit
350
AC
  0
LAYOUT
  5
7B
102
{ACAD_REACTORS
330
77
102
}
330
77
100
AcDbPlotSettings
  1

  2
none_device
  4

  6

 40
0.0
 41
0.0
 42
0.0
 43
0.0
 44
0.0
 45
0.0
 46
0.0
 47
0.0
 48
0.0
 49
0.0
140
0.0
141
0.0
142
1.0
143
1.0
 70
   688
 72
     0
 73
     0
 74
     5
  7

 75
    16
 76
     0
 77
     2
 78
   300
147
1.0
148
0.0
149
0.0
100
AcDbLayout
  1
Layout1
 70
     1
 71
     1
 10
0.0
 20
0.0
 11
12.0
 21
9.0
 12
0.0
 22
0.0
 32
0.0
 14
1.000000000000000E+20
 24
1.000000000000000E+20
 34
1.000000000000000E+20
 15
-1.000000000000000E+20
 25
-1.000000000000000E+20
 35
-1.000000000000000E+20
146
0.0
 13
0.0
 23
0.0
 33
0.0
 16
1.0
 26
0.0
 36
0.0
 17
0.0
 27
1.0
 37
0.0
 76
     0
330
78
  0
LAYOUT
  5
83
102
{ACAD_REACTORS
330
77
102
}
330
77
100
AcDbPlotSettings
  1

  2
none_device
  4

  6

 40
0.0
 41
0.0
 42
0.0
 43
0.0
 44
0.0
 45
0.0
 46
0.0
 47
0.0
 48
0.0
 49
0.0
140
0.0
141
0.0
142
1.0
143
1.0
 70
   688
 72
     0
 73
     0
 74
     5
  7

 75
    16
 76
     0
 77
     2
 78
   300
147
1.0
148
0.0
149
0.0
100
AcDbLayout
  1
Layout2
 70
     1
 71
     2
 10
0.0
 20
0.0
 11
0.0
 21
0.0
 12
0.0
 22
0.0
 32
0.0
 14
0.0
 24
0.0
 34
0.0
 15
0.0
 25
0.0
 35
0.0
146
0.0
 13
0.0
 23
0.0
 33
0.0
 16
1.0
 26
0.0
 36
0.0
 17
0.0
 27
1.0
 37
0.0
 76
     0
330
80
  0
LAYOUT
  5
7F
102
{ACAD_REACTORS
330
77
102
}
330
77
100
AcDbPlotSettings
  1

  2
none_device
  4

  6

 40
0.0
 41
0.0
 42
0.0
 43
0.0
 44
0.0
 45
0.0
 46
0.0
 47
0.0
 48
0.0
 49
0.0
140
0.0
141
0.0
142
1.0
143
1.0
 70
  1712
 72
     0
 73
     0
 74
     0
  7

 75
     0
 76
     0
 77
     2
 78
   300
147
1.0
148
0.0
149
0.0
100
AcDbLayout
  1
Model
 70
     1
 71
     0
 10
0.0
 20
0.0
 11
12.0
 21
9.0
 12
0.0
 22
0.0
 32
0.0
 14
1.000000000000000E+20
 24
1.000000000000000E+20
 34
1.000000000000000E+20
 15
-1.000000000000000E+20
 25
-1.000000000000000E+20
 35
-1.000000000000000E+20
146
0.0
 13
0.0
 23
0.0
 33
0.0
 16
1.0
 26
0.0
 36
0.0
 17
0.0
 27
1.0
 37
0.0
 76
     0
330
7C
331
86
  0
MATERIAL
  5
9A
102
{ACAD_REACTORS
330
98
102
}
330
98
100
AcDbMaterial
  1
ByBlock
 72
     1
 94
      127
  0
MATERIAL
  5
99
102
{ACAD_REACTORS
330
98
102
}
330
98
100
AcDbMaterial
  1
ByLayer
 72
     1
 94
      127
  0
MATERIAL
  5
9B
102
{ACAD_REACTORS
330
98
102
}
330
98
100
AcDbMaterial
  1
Global
 72
     1
 94
      127
  0
MLINESTYLE
  5
75
102
{ACAD_REACTORS
330
74
102
}
330
74
100
AcDbMlineStyle
  2
Standard
 70
     0
  3

 62
   256
 51
90.0
 52
90.0
 71
     2
 49
0.5
 62
   256
  6
BYLAYER
 49
-0.5
 62
   256
  6
BYLAYER
  0
ACDBPLACEHOLDER
  5
6D
102
{ACAD_REACTORS
330
6C
102
}
330
6C
  0
VISUALSTYLE
  5
8C
102
{ACAD_REACTORS
330
87
102
}
330
87
100
AcDbVisualStyle
  2
2dWireframe
 70
     4
177
     2
291
     0
 71
     0
176
     1
 72
     2
176
     1
 73
     0
176
     1
 90
        0
176
     1
 40
-0.6
176
     1
 41
-30.0
176
     1
 62
     5
 63
     7
421
 16777215
176
     1
 74
     1
176
     1
 91
        4
176
     1
 64
     7
176
     1
 65
   257
176
     1
 75
     1
176
     1
175
     1
176
     1
 42
1.0
176
     1
 92
        0
176
     1
 66
   257
176
     1
 43
1.0
176
     1
 76
     1
176
     1
 77
     6
176
     1
 78
     2
176
     1
 67
     7
176
     1
 79
     5
176
     1
170
     0
176
     1
171
     0
176
     1
290
     0
176
     1
 93
        1
176
     1
 44
0.0
176
     1
173
     0
176
     1
  0
VISUALSTYLE
  5
8E
102
{ACAD_REACTORS
330
87
102
}
330
87
100
AcDbVisualStyle
  2
3D Hidden
 70
     6
177
     2
291
     0
 71
     1
176
     1
 72
     2
176
     1
 73
     2
176
     1
 90
        0
176
     1
 40
-0.6
176
     1
 41
-30.0
176
     1
 62
     5
 63
     7
421
 16777215
176
     1
 74
     2
176
     1
 91
        2
176
     1
 64
     7
176
     1
 65
   257
176
     1
 75
     2
176
     1
175
     1
176
     1
 42
40.0
176
     1
 92
        0
176
     1
 66
   257
176
     1
 43
1.0
176
     1
 76
     1
176
     1
 77
     6
176
     1
 78
     2
176
     1
 67
     7
176
     1
 79
     3
176
     1
170
     0
176
     1
171
     0
176
     1
290
     0
176
     1
 93
        1
176
     1
 44
0.0
176
     1
173
     0
176
     1
  0
VISUALSTYLE
  5
8D
102
{ACAD_REACTORS
330
87
102
}
330
87
100
AcDbVisualStyle
  2
3dWireframe
 70
     5
177
     2
291
     0
 71
     0
176
     1
 72
     2
176
     1
 73
     0
176
     1
 90
        0
176
     1
 40
-0.6
176
     1
 41
-30.0
176
     1
 62
     5
 63
     7
421
 16777215
176
     1
 74
     1
176
     1
 91
        4
176
     1
 64
     7
176
     1
 65
   257
176
     1
 75
     1
176
     1
175
     1
176
     1
 42
1.0
176
     1
 92
        0
176
     1
 66
   257
176
     1
 43
1.0
176
     1
 76
     1
176
     1
 77
     6
176
     1
 78
     2
176
     1
 67
     7
176
     1
 79
     5
176
     1
170
     0
176
     1
171
     0
176
     1
290
     0
176
     1
 93
        1
176
     1
 44
0.0
176
     1
173
     0
176
     1
  0
VISUALSTYLE
  5
8F
102
{ACAD_REACTORS
330
87
102
}
330
87
100
AcDbVisualStyle
  2
Basic
 70
     7
177
     2
291
     1
 71
     1
176
     1
 72
     0
176
     1
 73
     1
176
     1
 90
        0
176
     1
 40
-0.6
176
     1
 41
-30.0
176
     1
 62
     5
 63
     7
421
 16777215
176
     1
 74
     0
176
     1
 91
        4
176
     1
 64
     7
176
     1
 65
   257
176
     1
 75
     1
176
     1
175
     1
176
     1
 42
1.0
176
     1
 92
        8
176
     1
 66
     7
176
     1
 43
1.0
176
     1
 76
     1
176
     1
 77
     6
176
     1
 78
     2
176
     1
 67
     7
176
     1
 79
     5
176
     1
170
     0
176
     1
171
     0
176
     1
290
     0
176
     1
 93
        1
176
     1
 44
0.0
176
     1
173
     0
176
     1
  0
VISUALSTYLE
  5
93
102
{ACAD_REACTORS
330
87
102
}
330
87
100
AcDbVisualStyle
  2
Brighten
 70
    12
177
     2
291
     1
 71
     2
176
     1
 72
     2
176
     1
 73
     0
176
     1
 90
        0
176
     1
 40
-0.6
176
     1
 41
-30.0
176
     1
 62
     5
 63
     7
421
 16777215
176
     1
 74
     1
176
     1
 91
        4
176
     1
 64
     7
176
     1
 65
   257
176
     1
 75
     1
176
     1
175
     1
176
     1
 42
1.0
176
     1
 92
        8
176
     1
 66
     7
176
     1
 43
1.0
176
     1
 76
     1
176
     1
 77
     6
176
     1
 78
     2
176
     1
 67
     7
176
     1
 79
     5
176
     1
170
     0
176
     1
171
     0
176
     1
290
     0
176
     1
 93
        1
176
     1
 44
50.0
176
     1
173
     0
176
     1
  0
VISUALSTYLE
  5
97
102
{ACAD_REACTORS
330
87
102
}
330
87
100
AcDbVisualStyle
  2
ColorChange
 70
    16
177
     2
291
     1
 71
     2
176
     1
 72
     2
176
     1
 73
     3
176
     1
 90
        0
176
     1
 40
-0.6
176
     1
 41
-30.0
176
     1
 62
     5
 63
     8
421
  8421504
176
     1
 74
     1
176
     1
 91
        4
176
     1
 64
     7
176
     1
 65
   257
176
     1
 75
     1
176
     1
175
     1
176
     1
 42
1.0
176
     1
 92
        8
176
     1
 66
     8
424
  8421504
176
     1
 43
1.0
176
     1
 76
     1
176
     1
 77
     6
176
     1
 78
     2
176
     1
 67
     7
176
     1
 79
     5
176
     1
170
     0
176
     1
171
     0
176
     1
290
     0
176
     1
 93
        1
176
     1
 44
0.0
176
     1
173
     0
176
     1
  0
VISUALSTYLE
  5
91
102
{ACAD_REACTORS
330
87
102
}
330
87
100
AcDbVisualStyle
  2
Conceptual
 70
     9
177
     2
291
     0
 71
     3
176
     1
 72
     2
176
     1
 73
     0
176
     1
 90
        0
176
     1
 40
-0.6
176
     1
 41
-30.0
176
     1
 62
     5
 63
     7
421
 16777215
176
     1
 74
     2
176
     1
 91
        2
176
     1
 64
     7
176
     1
 65
   257
176
     1
 75
     1
176
     1
175
     1
176
     1
 42
40.0
176
     1
 92
        8
176
     1
 66
     7
176
     1
 43
1.0
176
     1
 76
     1
176
     1
 77
     6
176
     1
 78
     2
176
     1
 67
     7
176
     1
 79
     3
176
     1
170
     0
176
     1
171
     0
176
     1
290
     0
176
     1
 93
        1
176
     1
 44
0.0
176
     1
173
     0
176
     1
  0
VISUALSTYLE
  5
92
102
{ACAD_REACTORS
330
87
102
}
330
87
100
AcDbVisualStyle
  2
Dim
 70
    11
177
     2
291
     1
 71
     2
176
     1
 72
     2
176
     1
 73
     0
176
     1
 90
        0
176
     1
 40
-0.6
176
     1
 41
-30.0
176
     1
 62
     5
 63
     7
421
 16777215
176
     1
 74
     1
176
     1
 91
        4
176
     1
 64
     7
176
     1
 65
   257
176
     1
 75
     1
176
     1
175
     1
176
     1
 42
1.0
176
     1
 92
        8
176
     1
 66
     7
176
     1
 43
1.0
176
     1
 76
     1
176
     1
 77
     6
176
     1
 78
     2
176
     1
 67
     7
176
     1
 79
     5
176
     1
170
     0
176
     1
171
     0
176
     1
290
     0
176
     1
 93
        1
176
     1
 44
-50.0
176
     1
173
     0
176
     1
  0
VISUALSTYLE
  5
96
102
{ACAD_REACTORS
330
87
102
}
330
87
100
AcDbVisualStyle
  2
Facepattern
 70
    15
177
     2
291
     1
 71
     2
176
     1
 72
     2
176
     1
 73
     0
176
     1
 90
        0
176
     1
 40
-0.6
176
     1
 41
-30.0
176
     1
 62
     5
 63
     7
421
 16777215
176
     1
 74
     1
176
     1
 91
        4
176
     1
 64
     7
176
     1
 65
   257
176
     1
 75
     1
176
     1
175
     1
176
     1
 42
1.0
176
     1
 92
        8
176
     1
 66
     7
176
     1
 43
1.0
176
     1
 76
     1
176
     1
 77
     6
176
     1
 78
     2
176
     1
 67
     7
176
     1
 79
     5
176
     1
170
     0
176
     1
171
     0
176
     1
290
     0
176
     1
 93
        1
176
     1
 44
0.0
176
     1
173
     0
176
     1
  0
VISUALSTYLE
  5
88
102
{ACAD_REACTORS
330
87
102
}
330
87
100
AcDbVisualStyle
  2
Flat
 70
     0
177
     2
291
     1
 71
     2
176
     1
 72
     1
176
     1
 73
     1
176
     1
 90
        2
176
     1
 40
-0.6
176
     1
 41
30.0
176
     1
 62
     5
 63
     7
421
 16777215
176
     1
 74
     0
176
     1
 91
        4
176
     1
 64
     7
176
     1
 65
   257
176
     1
 75
     1
176
     1
175
     1
176
     1
 42
1.0
176
     1
 92
        8
176
     1
 66
     7
176
     1
 43
1.0
176
     1
 76
     1
176
     1
 77
     6
176
     1
 78
     2
176
     1
 67
     7
176
     1
 79
     5
176
     1
170
     0
176
     1
171
     0
176
     1
290
     0
176
     1
 93
       13
176
     1
 44
0.0
176
     1
173
     0
176
     1
  0
VISUALSTYLE
  5
89
102
{ACAD_REACTORS
330
87
102
}
330
87
100
AcDbVisualStyle
  2
FlatWithEdges
 70
     1
177
     2
291
     1
 71
     2
176
     1
 72
     1
176
     1
 73
     1
176
     1
 90
        2
176
     1
 40
-0.6
176
     1
 41
30.0
176
     1
 62
     5
 63
     7
421
 16777215
176
     1
 74
     1
176
     1
 91
        4
176
     1
 64
     7
176
     1
 65
   257
176
     1
 75
     1
176
     1
175
     1
176
     1
 42
1.0
176
     1
 92
        0
176
     1
 66
   257
176
     1
 43
1.0
176
     1
 76
     1
176
     1
 77
     6
176
     1
 78
     2
176
     1
 67
     7
176
     1
 79
     5
176
     1
170
     0
176
     1
171
     0
176
     1
290
     0
176
     1
 93
       13
176
     1
 44
0.0
176
     1
173
     0
176
     1
  0
VISUALSTYLE
  5
8A
102
{ACAD_REACTORS
330
87
102
}
330
87
100
AcDbVisualStyle
  2
Gouraud
 70
     2
177
     2
291
     1
 71
     2
176
     1
 72
     2
176
     1
 73
     1
176
     1
 90
        2
176
     1
 40
-0.6
176
     1
 41
30.0
176
     1
 62
     5
 63
     7
421
 16777215
176
     1
 74
     0
176
     1
 91
        4
176
     1
 64
     7
176
     1
 65
   257
176
     1
 75
     1
176
     1
175
     1
176
     1
 42
1.0
176
     1
 92
        0
176
     1
 66
     7
176
     1
 43
1.0
176
     1
 76
     1
176
     1
 77
     6
176
     1
 78
     2
176
     1
 67
     7
176
     1
 79
     5
176
     1
170
     0
176
     1
171
     0
176
     1
290
     0
176
     1
 93
       13
176
     1
 44
0.0
176
     1
173
     0
176
     1
  0
VISUALSTYLE
  5
8B
102
{ACAD_REACTORS
330
87
102
}
330
87
100
AcDbVisualStyle
  2
GouraudWithEdges
 70
     3
177
     2
291
     1
 71
     2
176
     1
 72
     2
176
     1
 73
     1
176
     1
 90
        2
176
     1
 40
-0.6
176
     1
 41
30.0
176
     1
 62
     5
 63
     7
421
 16777215
176
     1
 74
     1
176
     1
 91
        4
176
     1
 64
     7
176
     1
 65
   257
176
     1
 75
     1
176
     1
175
     1
176
     1
 42
1.0
176
     1
 92
        0
176
     1
 66
   257
176
     1
 43
1.0
176
     1
 76
     1
176
     1
 77
     6
176
     1
 78
     2
176
     1
 67
     7
176
     1
 79
     5
176
     1
170
     0
176
     1
171
     0
176
     1
290
     0
176
     1
 93
       13
176
     1
 44
0.0
176
     1
173
     0
176
     1
  0
VISUALSTYLE
  5
95
102
{ACAD_REACTORS
330
87
102
}
330
87
100
AcDbVisualStyle
  2
Linepattern
 70
    14
177
     2
291
     1
 71
     2
176
     1
 72
     2
176
     1
 73
     0
176
     1
 90
        0
176
     1
 40
-0.6
176
     1
 41
-30.0
176
     1
 62
     5
 63
     7
421
 16777215
176
     1
 74
     1
176
     1
 91
        4
176
     1
 64
     7
176
     1
 65
   257
176
     1
 75
     7
176
     1
175
     7
176
     1
 42
1.0
176
     1
 92
        8
176
     1
 66
     7
176
     1
 43
1.0
176
     1
 76
     1
176
     1
 77
     6
176
     1
 78
     2
176
     1
 67
     7
176
     1
 79
     5
176
     1
170
     0
176
     1
171
     0
176
     1
290
     0
176
     1
 93
        1
176
     1
 44
0.0
176
     1
173
     0
176
     1
  0
VISUALSTYLE
  5
90
102
{ACAD_REACTORS
330
87
102
}
330
87
100
AcDbVisualStyle
  2
Realistic
 70
     8
177
     2
291
     0
 71
     2
176
     1
 72
     2
176
     1
 73
     0
176
     1
 90
        0
176
     1
 40
-0.6
176
     1
 41
-30.0
176
     1
 62
     5
 63
     7
421
 16777215
176
     1
 74
     1
176
     1
 91
        0
176
     1
 64
     7
176
     1
 65
   257
176
     1
 75
     1
176
     1
175
     1
176
     1
 42
1.0
176
     1
 92
        8
176
     1
 66
     8
424
  7895160
176
     1
 43
1.0
176
     1
 76
     1
176
     1
 77
     6
176
     1
 78
     2
176
     1
 67
     7
176
     1
 79
     5
176
     1
170
     0
176
     1
171
     0
176
     1
290
     0
176
     1
 93
       13
176
     1
 44
0.0
176
     1
173
     0
176
     1
  0
VISUALSTYLE
  5
94
102
{ACAD_REACTORS
330
87
102
}
330
87
100
AcDbVisualStyle
  2
Thicken
 70
    13
177
     2
291
     1
 71
     2
176
     1
 72
     2
176
     1
 73
     0
176
     1
 90
        0
176
     1
 40
-0.6
176
     1
 41
-30.0
176
     1
 62
     5
 63
     7
421
 16777215
176
     1
 74
     1
176
     1
 91
        4
176
     1
 64
     7
176
     1
 65
   257
176
     1
 75
     1
176
     1
175
     1
176
     1
 42
1.0
176
     1
 92
       12
176
     1
 66
     7
176
     1
 43
1.0
176
     1
 76
     1
176
     1
 77
     6
176
     1
 78
     2
176
     1
 67
     7
176
     1
 79
     5
176
     1
170
     0
176
     1
171
     0
176
     1
290
     0
176
     1
 93
        1
176
     1
 44
0.0
176
     1
173
     0
176
     1
  0
XRECORD
  5
AD
102
{ACAD_REACTORS
330
9D
102
}
330
9D
100
AcDbXrecord
280
     1
290
     1
  0
XRECORD
  5
A6
102
{ACAD_REACTORS
330
9D
102
}
330
9D
100
AcDbXrecord
280
     1
1000
auto
  0
XRECORD
  5
A7
102
{ACAD_REACTORS
330
9D
102
}
330
9D
100
AcDbXrecord
280
     1
1000
auto
  0
XRECORD
  5
A1
102
{ACAD_REACTORS
330
9D
102
}
330
9D
100
AcDbXrecord
280
     1
1000
auto
  0
XRECORD
  5
A4
102
{ACAD_REACTORS
330
9D
102
}
330
9D
100
AcDbXrecord
280
     1
1000
auto
  0
XRECORD
  5
A5
102
{ACAD_REACTORS
330
9D
102
}
330
9D
100
AcDbXrecord
280
     1
 90
        1
  0
XRECORD
  5
AA
102
{ACAD_REACTORS
330
9D
102
}
330
9D
100
AcDbXrecord
280
     1
 40
10.0
  0
XRECORD
  5
A8
102
{ACAD_REACTORS
330
9D
102
}
330
9D
100
AcDbXrecord
280
     1
 40
10.0
  0
XRECORD
  5
9E
102
{ACAD_REACTORS
330
9D
102
}
330
9D
100
AcDbXrecord
280
     1
 40
10.0
  0
XRECORD
  5
B1
102
{ACAD_REACTORS
330
9D
102
}
330
9D
100
AcDbXrecord
280
     1
 40
10.0
  0
XRECORD
  5
A0
102
{ACAD_REACTORS
330
9D
102
}
330
9D
100
AcDbXrecord
280
     1
290
     0
  0
XRECORD
  5
A9
102
{ACAD_REACTORS
330
9D
102
}
330
9D
100
AcDbXrecord
280
     1
 90
        1
  0
XRECORD
  5
AF
102
{ACAD_REACTORS
330
9D
102
}
330
9D
100
AcDbXrecord
280
     1
 40
0.0
  0
XRECORD
  5
B0
102
{ACAD_REACTORS
330
9D
102
}
330
9D
100
AcDbXrecord
280
     1
 40
0.0
  0
XRECORD
  5
9F
102
{ACAD_REACTORS
330
9D
102
}
330
9D
100
AcDbXrecord
280
     1
1000
Portrait
  0
XRECORD
  5
A2
102
{ACAD_REACTORS
330
9D
102
}
330
9D
100
AcDbXrecord
280
     1
 40
297.0
  0
XRECORD
  5
AB
102
{ACAD_REACTORS
330
9D
102
}
330
9D
100
AcDbXrecord
280
     1
 40
210.0
  0
XRECORD
  5
A3
102
{ACAD_REACTORS
330
9D
102
}
330
9D
100
AcDbXrecord
280
     1
1000
1:1
  0
XRECORD
  5
AE
102
{ACAD_REACTORS
330
9D
102
}
330
9D
100
AcDbXrecord
280
     1
290
     1
  0
XRECORD
  5
AC
102
{ACAD_REACTORS
330
9D
102
}
330
9D
100
AcDbXrecord
280
     1
 90
        4
  0
ENDSEC
  0
EOF
