999
dxfrw 0.5.10
0
SECTION
2
HEADER
9
$ACADVER
1
AC1021
9
$HANDSEED
5
20000
9
$DWGCODEPAGE
3
ANSI_1252
9
$INSBASE
10
0
20
0
30
0
9
$EXTMIN
10
0
20
-1.34073
30
0
9
$EXTMAX
10
360
20
190
30
0
9
$LIMMIN
10
0
20
0
9
$LIMMAX
10
420
20
297
9
$ORTHOMODE
70
0
9
$LTSCALE
40
1
9
$TEXTSTYLE
7
STANDARD
9
$CLAYER
8
teil
9
$DIMASZ
40
2.5
9
$DIMLFAC
40
1
9
$DIMSCALE
40
1
9
$DIMEXO
40
0.625
9
$DIMEXE
40
1.25
9
$DIMTXT
40
2.5
9
$DIMTSZ
40
0
9
$DIMAUNIT
70
0
9
$DIMADEC
70
0
9
$DIMLUNIT
70
2
9
$DIMSTYLE
2
Standard
9
$DIMGAP
40
0.625
9
$DIMTIH
70
0
9
$LUNITS
70
2
9
$LUPREC
70
4
9
$AUNITS
70
0
9
$AUPREC
70
2
9
$SPLINESEGS
70
8
9
$GRIDMODE
70
1
9
$SNAPSTYLE
70
0
9
$PINSBASE
10
0
20
0
30
0
9
$PLIMMIN
10
0
20
0
9
$PLIMMAX
10
210
20
297
9
$INSUNITS
70
0
9
$PSVPSCALE
40
0
0
ENDSEC
0
SECTION
2
CLASSES
0
ENDSEC
0
SECTION
2
TABLES
0
TABLE
2
VPORT
5
8
330
0
100
AcDbSymbolTable
70
1
0
VPORT
5
31
330
2
100
AcDbSymbolTableRecord
100
AcDbViewportTableRecord
2
*ACTIVE
70
0
10
0
20
0
11
1
21
1
12
261.247524482
22
167.91368435
13
0
23
0
14
10
24
10
15
10
25
10
16
0
26
0
36
1
17
0
27
0
37
0
40
485.859336015
41
2.69838420108
42
50
43
0
44
0
50
0
51
0
71
0
72
100
73
1
74
3
75
0
76
1
77
0
78
0
281
0
65
1
110
0
120
0
130
0
111
1
121
0
131
0
112
0
122
1
132
0
79
0
146
0
348
10020
60
7
61
5
292
1
282
1
141
0
142
0
63
250
421
3358443
0
ENDTAB
0
TABLE
2
LTYPE
5
5
330
0
100
AcDbSymbolTable
70
4
0
LTYPE
5
14
330
5
100
AcDbSymbolTableRecord
100
AcDbLinetypeTableRecord
2
ByBlock
70
0
3

72
65
73
0
40
0
0
LTYPE
5
15
330
5
100
AcDbSymbolTableRecord
100
AcDbLinetypeTableRecord
2
ByLayer
70
0
3

72
65
73
0
40
0
0
LTYPE
5
16
330
5
100
AcDbSymbolTableRecord
100
AcDbLinetypeTableRecord
2
Continuous
70
0
3
Solid line
72
65
73
0
40
0
0
LTYPE
5
32
330
5
100
AcDbSymbolTableRecord
100
AcDbLinetypeTableRecord
2
DOT
70
0
3
Dot . . . . . . . . . . . . . . . . . . . . . .
72
65
73
2
40
6.35
49
0
74
0
49
-6.35
74
0
0
LTYPE
5
33
330
5
100
AcDbSymbolTableRecord
100
AcDbLinetypeTableRecord
2
DOT2
70
0
3
Dot (.5x) .....................................
72
65
73
2
40
3.175
49
0
74
0
49
-3.175
74
0
0
LTYPE
5
34
330
5
100
AcDbSymbolTableRecord
100
AcDbLinetypeTableRecord
2
DOTX2
70
0
3
Dot (2x) .  .  .  .  .  .  .  .  .  .  .  .  .
72
65
73
2
40
12.7
49
0
74
0
49
-12.7
74
0
0
LTYPE
5
35
330
5
100
AcDbSymbolTableRecord
100
AcDbLinetypeTableRecord
2
DASHED
70
0
3
Dot . . . . . . . . . . . . . . . . . . . . . .
72
65
73
2
40
19.05
49
12.7
74
0
49
-6.35
74
0
0
LTYPE
5
36
330
5
100
AcDbSymbolTableRecord
100
AcDbLinetypeTableRecord
2
DASHED2
70
0
3
Dashed (.5x) _ _ _ _ _ _ _ _ _ _ _ _ _ _ _ _ _
72
65
73
2
40
9.525
49
6.35
74
0
49
-3.175
74
0
0
LTYPE
5
37
330
5
100
AcDbSymbolTableRecord
100
AcDbLinetypeTableRecord
2
DASHEDX2
70
0
3
Dashed (2x) ____  ____  ____  ____  ____  ___
72
65
73
2
40
38.1
49
25.4
74
0
49
-12.7
74
0
0
LTYPE
5
38
330
5
100
AcDbSymbolTableRecord
100
AcDbLinetypeTableRecord
2
DASHDOT
70
0
3
Dash dot __ . __ . __ . __ . __ . __ . __ . __
72
65
73
4
40
25.4
49
12.7
74
0
49
-6.35
74
0
49
0
74
0
49
-6.35
74
0
0
LTYPE
5
39
330
5
100
AcDbSymbolTableRecord
100
AcDbLinetypeTableRecord
2
DASHDOT2
70
0
3
Dash dot (.5x) _._._._._._._._._._._._._._._.
72
65
73
4
40
12.7
49
6.35
74
0
49
-3.175
74
0
49
0
74
0
49
-3.175
74
0
0
LTYPE
5
3A
330
5
100
AcDbSymbolTableRecord
100
AcDbLinetypeTableRecord
2
DASHDOTX2
70
0
3
Dash dot (2x) ____  .  ____  .  ____  .  ___
72
65
73
4
40
50.8
49
25.4
74
0
49
-12.7
74
0
49
0
74
0
49
-12.7
74
0
0
LTYPE
5
3B
330
5
100
AcDbSymbolTableRecord
100
AcDbLinetypeTableRecord
2
DIVIDE
70
0
3
Divide ____ . . ____ . . ____ . . ____ . . ____
72
65
73
6
40
31.75
49
12.7
74
0
49
-6.35
74
0
49
0
74
0
49
-6.35
74
0
49
0
74
0
49
-6.35
74
0
0
LTYPE
5
3C
330
5
100
AcDbSymbolTableRecord
100
AcDbLinetypeTableRecord
2
DIVIDE2
70
0
3
Divide (.5x) __..__..__..__..__..__..__..__.._
72
65
73
6
40
15.875
49
6.35
74
0
49
-3.175
74
0
49
0
74
0
49
-3.175
74
0
49
0
74
0
49
-3.175
74
0
0
LTYPE
5
3D
330
5
100
AcDbSymbolTableRecord
100
AcDbLinetypeTableRecord
2
DIVIDEX2
70
0
3
Divide (2x) ________  .  .  ________  .  .  _
72
65
73
6
40
63.5
49
25.4
74
0
49
-12.7
74
0
49
0
74
0
49
-12.7
74
0
49
0
74
0
49
-12.7
74
0
0
LTYPE
5
3E
330
5
100
AcDbSymbolTableRecord
100
AcDbLinetypeTableRecord
2
BORDER
70
0
3
Border __ __ . __ __ . __ __ . __ __ . __ __ .
72
65
73
6
40
44.45
49
12.7
74
0
49
-6.35
74
0
49
12.7
74
0
49
-6.35
74
0
49
0
74
0
49
-6.35
74
0
0
LTYPE
5
3F
330
5
100
AcDbSymbolTableRecord
100
AcDbLinetypeTableRecord
2
BORDER2
70
0
3
Border (.5x) __.__.__.__.__.__.__.__.__.__.__.
72
65
73
6
40
22.225
49
6.35
74
0
49
-3.175
74
0
49
6.35
74
0
49
-3.175
74
0
49
0
74
0
49
-3.175
74
0
0
LTYPE
5
40
330
5
100
AcDbSymbolTableRecord
100
AcDbLinetypeTableRecord
2
BORDERX2
70
0
3
Border (2x) ____  ____  .  ____  ____  .  ___
72
65
73
6
40
88.9
49
25.4
74
0
49
-12.7
74
0
49
25.4
74
0
49
-12.7
74
0
49
0
74
0
49
-12.7
74
0
0
LTYPE
5
41
330
5
100
AcDbSymbolTableRecord
100
AcDbLinetypeTableRecord
2
CENTER
70
0
3
Center ____ _ ____ _ ____ _ ____ _ ____ _ ____
72
65
73
4
40
50.8
49
31.75
74
0
49
-6.35
74
0
49
6.35
74
0
49
-6.35
74
0
0
LTYPE
5
42
330
5
100
AcDbSymbolTableRecord
100
AcDbLinetypeTableRecord
2
CENTER2
70
0
3
Center (.5x) ___ _ ___ _ ___ _ ___ _ ___ _ ___
72
65
73
4
40
28.575
49
19.05
74
0
49
-3.175
74
0
49
3.175
74
0
49
-3.175
74
0
0
LTYPE
5
43
330
5
100
AcDbSymbolTableRecord
100
AcDbLinetypeTableRecord
2
CENTERX2
70
0
3
Center (2x) ________  __  ________  __  _____
72
65
73
4
40
101.6
49
63.5
74
0
49
-12.7
74
0
49
12.7
74
0
49
-12.7
74
0
0
ENDTAB
0
TABLE
2
LAYER
5
2
330
0
100
AcDbSymbolTable
70
1
0
LAYER
5
10
330
2
100
AcDbSymbolTableRecord
100
AcDbLayerTableRecord
2
0
70
0
62
7
6
CONTINUOUS
370
-3
390
F
0
LAYER
5
44
330
2
100
AcDbSymbolTableRecord
100
AcDbLayerTableRecord
2
teil
70
0
62
3
6
CONTINUOUS
370
0
390
F
0
ENDTAB
0
TABLE
2
STYLE
5
3
330
0
100
AcDbSymbolTable
70
3
0
STYLE
5
45
330
2
100
AcDbSymbolTableRecord
100
AcDbTextStyleTableRecord
2
Standard
70
0
40
0
41
1
50
0
71
0
42
1
3
txt
4

0
ENDTAB
0
TABLE
2
VIEW
5
6
330
0
100
AcDbSymbolTable
70
0
0
ENDTAB
0
TABLE
2
UCS
5
7
330
0
100
AcDbSymbolTable
70
0
0
ENDTAB
0
TABLE
2
APPID
5
9
330
0
100
AcDbSymbolTable
70
1
0
APPID
5
12
330
9
100
AcDbSymbolTableRecord
100
AcDbRegAppTableRecord
2
ACAD
70
0
0
ENDTAB
0
TABLE
2
DIMSTYLE
5
A
330
0
100
AcDbSymbolTable
70
1
100
AcDbDimStyleTable
71
1
0
DIMSTYLE
105
46
330
A
100
AcDbSymbolTableRecord
100
AcDbDimStyleTableRecord
2
Standard
70
0
40
1
41
2.5
42
0.625
43
0.38
44
1.25
45
0
46
0
47
0
48
0
140
2.5
141
0.09
142
0
143
25.4
144
1
145
0
146
1
147
0.625
148
0
71
0
72
0
73
0
74
1
75
0
76
0
77
0
78
0
79
0
170
0
171
2
172
0
173
0
174
0
175
0
176
0
177
0
178
0
179
0
271
4
272
4
273
2
274
2
275
0
276
0
277
2
278
46
279
0
280
0
281
0
282
0
283
1
284
0
285
0
286
0
288
0
289
3
340
Standard
341

371
-2
372
-2
0
ENDTAB
0
TABLE
2
BLOCK_RECORD
5
1
330
0
100
AcDbSymbolTable
70
2
0
BLOCK_RECORD
5
1F
330
1
100
AcDbSymbolTableRecord
100
AcDbBlockTableRecord
2
*Model_Space
70
0
280
1
281
0
0
BLOCK_RECORD
5
1E
330
1
100
AcDbSymbolTableRecord
100
AcDbBlockTableRecord
2
*Paper_Space
70
0
280
1
281
0
0
ENDTAB
0
ENDSEC
0
SECTION
2
BLOCKS
0
BLOCK
5
20
330
1F
100
AcDbEntity
8
0
100
AcDbBlockBegin
2
*Model_Space
70
0
10
0
20
0
30
0
3
*Model_Space
1

0
ENDBLK
5
21
330
1F
100
AcDbEntity
8
0
100
AcDbBlockEnd
0
BLOCK
5
1C
330
1B
100
AcDbEntity
8
0
100
AcDbBlockBegin
2
*Paper_Space
70
0
10
0
20
0
30
0
3
*Paper_Space
1

0
ENDBLK
5
1D
330
1F
100
AcDbEntity
8
0
100
AcDbBlockEnd
0
ENDSEC
0
SECTION
2
ENTITIES
0
LWPOLYLINE
5
47
100
AcDbEntity
8
0
6
ByLayer
62
0
370
-1
100
AcDbPolyline
90
142
70
1
43
0
10
89.4204
20
0.10188
10
88.35291
20
0.15372
10
87.06348
20
0.21645
10
85.58757
20
0.288
10
83.99052
20
0.36549
10
82.33209
20
0.44604
10
80.64198
20
0.52803
10
78.93837
20
0.61083
10
77.22909
20
0.69372
10
75.51747
20
0.7767
10
73.80315
20
0.86004
10
72.0882
20
0.94338
10
70.37181
20
1.02681
10
68.65623
20
1.11033
10
66.9393
20
1.19367
10
65.22345
20
1.27719
10
63.50823
20
1.36071
10
61.79085
20
1.44432
10
60.07383
20
1.52811
10
58.35348
20
1.61199
10
56.6334
20
1.69605
10
54.9072
20
1.78065
10
53.17938
20
1.86543
10
51.44589
20
1.95048
10
49.70781
20
2.03598
10
47.96919
20
2.12148
10
46.22769
20
2.20725
10
44.4915
20
2.29239
10
42.75018
20
2.3778
10
41.00886
20
2.46276
10
39.27906
20
2.54655
10
37.55898
20
2.62917
10
35.86149
20
2.70972
10
34.18497
20
2.78784
10
32.87745
20
2.84724
10
32.05071
20
2.88396
10
30.83256
20
2.9367
10
29.06046
20
3.00915
10
27.24291
20
3.07701
10
25.48359
20
3.13461
10
23.79105
20
3.18096
10
22.1265
20
3.21606
10
20.47464
20
3.23919
10
18.83907
20
3.24864
10
17.22105
20
3.24315
10
15.6303
20
3.22119
10
14.0706
20
3.18186
10
12.56391
20
3.12435
10
11.12427
20
3.04911
10
9.76824
20
2.95677
10
8.51085
20
2.84931
10
7.37478
20
2.73051
10
6.36966
20
2.60469
10
5.49567
20
2.47626
10
4.74309
20
2.34846
10
4.10013
20
2.22363
10
3.54888
20
2.10285
10
3.07224
20
1.98567
10
2.65482
20
1.87128
10
2.28384
20
1.75788
10
1.94922
20
1.64376
10
1.63674
20
1.52433
10
1.33308
20
1.39284
10
1.03248
20
1.24128
10
0.74151
20
1.06308
10
0.48051
20
0.85914
10
0.26163
20
0.63018
10
0.09297
20
0.36774
10
0.00666
20
0.09423
10
0
20
0
10
0.01494
20
-0.12951
10
0.08154
20
-0.28323
10
0.15705
20
-0.37764
10
0.22482
20
-0.43983
10
0.31563
20
-0.50616
10
0.44568
20
-0.58059
10
0.60948
20
-0.65439
10
0.79902
20
-0.72306
10
1.00944
20
-0.78525
10
1.24686
20
-0.8433
10
1.52424
20
-0.89937
10
1.85256
20
-0.95436
10
2.23947
20
-1.00782
10
2.69235
20
-1.05858
10
3.21525
20
-1.10592
10
3.81375
20
-1.14939
10
4.49721
20
-1.18899
10
5.27895
20
-1.22472
10
6.17193
20
-1.25622
10
7.19235
20
-1.28358
10
8.34534
20
-1.30599
10
9.62667
20
-1.323
10
11.01087
20
-1.33443
10
12.47535
20
-1.3401
10
13.99437
20
-1.34073
10
15.55623
20
-1.33686
10
17.14698
20
-1.3293
10
18.76419
20
-1.31832
10
20.39877
20
-1.30491
10
22.05387
20
-1.28934
10
23.74344
20
-1.27125
10
25.48071
20
-1.25064
10
27.28449
20
-1.22697
10
29.16873
20
-1.19979
10
31.10895
20
-1.16937
10
32.0967
20
-1.15317
10
33.31071
20
-1.13238
10
34.67988
20
-1.10817
10
36.21978
20
-1.08027
10
37.77174
20
-1.05183
10
39.35673
20
-1.0224
10
40.96863
20
-0.99234
10
42.60339
20
-0.96201
10
44.25813
20
-0.93123
10
45.91926
20
-0.90036
10
47.58363
20
-0.86922
10
49.25025
20
-0.83817
10
50.91948
20
-0.80685
10
52.59357
20
-0.77535
10
54.28044
20
-0.74394
10
55.97748
20
-0.71226
10
57.69198
20
-0.68022
10
59.42619
20
-0.64755
10
61.17399
20
-0.61479
10
62.92647
20
-0.58203
10
64.68129
20
-0.54936
10
66.43233
20
-0.51642
10
68.18733
20
-0.48357
10
69.93909
20
-0.45072
10
71.69211
20
-0.41751
10
73.44342
20
-0.38484
10
75.19617
20
-0.3519
10
76.94478
20
-0.31887
10
78.69429
20
-0.28584
10
80.43381
20
-0.25308
10
82.1592
20
-0.2205
10
83.85399
20
-0.18855
10
85.48074
20
-0.15804
10
86.98338
20
-0.12978
10
88.30026
20
-0.10485
10
89.38467
20
-0.08451
10
89.98821
20
-0.07335
0
ARC
5
48
100
AcDbEntity
8
teil
6
ByLayer
62
256
370
-1
100
AcDbCircle
10
84.5
20
7.5
40
0.5
100
AcDbArc
50
270
51
0
0
ARC
5
49
100
AcDbEntity
8
teil
6
ByLayer
62
256
370
-1
100
AcDbCircle
10
86.2826086957
20
30.3260869565
40
22.362898825
100
AcDbArc
50
210.428833153
51
265.528138205
0
LINE
5
4A
100
AcDbEntity
8
teil
6
ByLayer
62
256
370
-1
100
AcDbLine
10
85
20
7.5
11
85
21
7.53278862303
0
ARC
5
4B
100
AcDbEntity
8
teil
6
ByLayer
62
256
370
-1
100
AcDbCircle
10
84.5
20
7.53278862303
40
0.5
100
AcDbArc
50
0
51
85.5281382049
0
LINE
5
4C
100
AcDbEntity
8
teil
6
ByLayer
62
256
370
-1
100
AcDbLine
10
89.4
20
27.2
11
103.8
21
18.8
0
LINE
5
4D
100
AcDbEntity
8
teil
6
ByLayer
62
256
370
-1
100
AcDbLine
10
87
20
21.2
11
93
21
17.6
0
ARC
5
4E
100
AcDbEntity
8
teil
6
ByLayer
62
256
370
-1
100
AcDbCircle
10
88.4307692308
20
24.1076923077
40
3.2406442489
100
AcDbArc
50
72.5972958686
51
243.799885159
0
LINE
5
4F
100
AcDbEntity
8
teil
6
ByLayer
62
256
370
-1
100
AcDbLine
10
128.5625
20
22.3671875
11
119.1484375
21
29.9453125
0
ARC
5
50
100
AcDbEntity
8
teil
6
ByLayer
62
256
370
-1
100
AcDbCircle
10
116.468719504
20
27.9541923572
40
3.33847988774
100
AcDbArc
50
36.6135842327
51
238.701197133
0
ARC
5
51
100
AcDbEntity
8
teil
6
ByLayer
62
256
370
-1
100
AcDbCircle
10
92.4
20
15.8
40
1.8973665961
100
AcDbArc
50
357.609359882
51
71.5650511771
0
ARC
5
52
100
AcDbEntity
8
teil
6
ByLayer
62
256
370
-1
100
AcDbCircle
10
94.7952800663
20
15.7
40
0.5
100
AcDbArc
50
177.609359882
51
270
0
ARC
5
53
100
AcDbEntity
8
teil
6
ByLayer
62
256
370
-1
100
AcDbCircle
10
112.4
20
33
40
16.6012047756
100
AcDbArc
50
238.799485396
51
267.654068559
0
ARC
5
54
100
AcDbEntity
8
teil
6
ByLayer
62
256
370
-1
100
AcDbCircle
10
111.7
20
15.9131277065
40
0.5
100
AcDbArc
50
0
51
87.6540685592
0
LINE
5
55
100
AcDbEntity
8
teil
6
ByLayer
62
256
370
-1
100
AcDbLine
10
94.7952800663
20
15.2
11
111.7
21
15.2
0
LINE
5
56
100
AcDbEntity
8
teil
6
ByLayer
62
256
370
-1
100
AcDbLine
10
112.2
20
15.7
11
112.2
21
15.9131277065
0
ARC
5
57
100
AcDbEntity
8
teil
6
ByLayer
62
256
370
-1
100
AcDbCircle
10
111.7
20
15.7
40
0.5
100
AcDbArc
50
270
51
0
0
LINE
5
58
100
AcDbEntity
8
teil
6
ByLayer
62
256
370
-1
100
AcDbLine
10
122.15625
20
15.765625
11
122.2494214
21
15.1367180491
0
ARC
5
59
100
AcDbEntity
8
teil
6
ByLayer
62
256
370
-1
100
AcDbCircle
10
122.744023131
20
15.2099923796
40
0.5
100
AcDbArc
50
188.426969021
51
269.874351562
0
LINE
5
5A
100
AcDbEntity
8
teil
6
ByLayer
62
256
370
-1
100
AcDbLine
10
122.742926643
20
14.7099935819
11
139.623903511
21
14.6729738958
0
ARC
5
5B
100
AcDbEntity
8
teil
6
ByLayer
62
256
370
-1
100
AcDbCircle
10
139.625
20
15.1729726935
40
0.5
100
AcDbArc
50
269.874351562
51
0
0
LINE
5
5C
100
AcDbEntity
8
teil
6
ByLayer
62
256
370
-1
100
AcDbLine
10
140.125
20
15.1729726935
11
140.125
21
15.6521533716
0
ARC
5
5D
100
AcDbEntity
8
teil
6
ByLayer
62
256
370
-1
100
AcDbCircle
10
139.625
20
15.6521533716
40
0.5
100
AcDbArc
50
0
51
69.6521507373
0
LINE
5
5E
100
AcDbEntity
8
teil
6
ByLayer
62
256
370
-1
100
AcDbLine
10
134.169744897
20
18.2294274728
11
128.5625
21
22.3671875
0
LINE
5
5F
100
AcDbEntity
8
teil
6
ByLayer
62
256
370
-1
100
AcDbLine
10
139.798859394
20
16.1209528077
11
134.292768885
21
18.1629466386
0
ARC
5
60
100
AcDbEntity
8
teil
6
ByLayer
62
256
370
-1
100
AcDbCircle
10
134.466628279
20
18.6317460747
40
0.5
100
AcDbArc
50
233.57523264
51
249.652150737
0
LINE
5
61
100
AcDbEntity
8
teil
6
ByLayer
62
256
370
-1
100
AcDbLine
10
121.592827315
20
17.9441927163
11
122.15625
21
15.765625
0
ARC
5
62
100
AcDbEntity
8
teil
6
ByLayer
62
256
370
-1
100
AcDbCircle
10
121.108753859
20
17.8190013053
40
0.5
100
AcDbArc
50
14.5001667666
51
34.8907015075
0
LINE
5
63
100
AcDbEntity
8
teil
6
ByLayer
62
256
370
-1
100
AcDbLine
10
114.734375
20
25.1015625
11
119.452151275
21
21.0411812793
0
LINE
5
64
100
AcDbEntity
8
teil
6
ByLayer
62
256
370
-1
100
AcDbLine
10
119.536111172
20
20.9482179425
11
121.518876218
21
18.1050076873
0
ARC
5
65
100
AcDbEntity
8
teil
6
ByLayer
62
256
370
-1
100
AcDbCircle
10
119.125988813
20
20.6622115605
40
0.5
100
AcDbArc
50
34.8907015075
51
49.2828784652
0
LINE
5
66
100
AcDbEntity
8
teil
6
ByLayer
62
256
370
-1
100
AcDbLine
10
170.049875
20
21.3244
11
165.441875
21
23.27
0
LINE
5
67
100
AcDbEntity
8
teil
6
ByLayer
62
256
370
-1
100
AcDbLine
10
165.441875
20
23.27
11
162.677075
21
24.9084
0
LINE
5
68
100
AcDbEntity
8
teil
6
ByLayer
62
256
370
-1
100
AcDbLine
10
162.677075
20
24.9084
11
161.525075
21
25.9068
0
LINE
5
69
100
AcDbEntity
8
teil
6
ByLayer
62
256
370
-1
100
AcDbLine
10
160.270675
20
19.3532
11
158.709075
21
20.5052
0
LINE
5
6A
100
AcDbEntity
8
teil
6
ByLayer
62
256
370
-1
100
AcDbLine
10
158.709075
20
20.5052
11
157.326675
21
21.2732
0
ARC
5
6B
100
AcDbEntity
8
teil
6
ByLayer
62
256
370
-1
100
AcDbCircle
10
158.888952259
20
24.130125238
40
3.1789489323
100
AcDbArc
50
33.97889453
51
198.109495075
0
ARC
5
6C
100
AcDbEntity
8
teil
6
ByLayer
62
256
370
-1
100
AcDbCircle
10
162.227223588
20
17.0116
40
0.5
100
AcDbArc
50
189.865806943
51
270
0
LINE
5
6D
100
AcDbEntity
8
teil
6
ByLayer
62
256
370
-1
100
AcDbLine
10
162.227223588
20
16.5116
11
184.235426129
21
16.5116
0
ARC
5
6E
100
AcDbEntity
8
teil
6
ByLayer
62
256
370
-1
100
AcDbCircle
10
184.235426129
20
17.0116
40
0.5
100
AcDbArc
50
270
51
1.00508600525
0
LINE
5
6F
100
AcDbEntity
8
teil
6
ByLayer
62
256
370
-1
100
AcDbLine
10
184.7353492
20
17.0203705802
11
184.725973636
21
17.5547777753
0
ARC
5
70
100
AcDbEntity
8
teil
6
ByLayer
62
256
370
-1
100
AcDbCircle
10
184.226050565
20
17.5460071951
40
0.5
100
AcDbArc
50
1.00508600525
51
80.537677792
0
LINE
5
71
100
AcDbEntity
8
teil
6
ByLayer
62
256
370
-1
100
AcDbLine
10
161.366415454
20
18.3944271029
11
160.270675
21
19.3532
0
LINE
5
72
100
AcDbEntity
8
teil
6
ByLayer
62
256
370
-1
100
AcDbLine
10
161.734617711
20
16.9259294126
11
161.529769027
21
18.1038093429
0
ARC
5
73
100
AcDbEntity
8
teil
6
ByLayer
62
256
370
-1
100
AcDbCircle
10
161.03716315
20
18.0181387555
40
0.5
100
AcDbArc
50
9.86580694308
51
48.8140748343
0
LINE
5
74
100
AcDbEntity
8
teil
6
ByLayer
62
256
370
-1
100
AcDbLine
10
156.310901119
20
22.2318095448
11
155.867475
21
23.142
0
LINE
5
75
100
AcDbEntity
8
teil
6
ByLayer
62
256
370
-1
100
AcDbLine
10
157.326675
20
21.2732
11
156.426998624
21
22.0781735997
0
ARC
5
76
100
AcDbEntity
8
teil
6
ByLayer
62
256
370
-1
100
AcDbCircle
10
156.760396054
20
22.4507942565
40
0.5
100
AcDbArc
50
205.974393962
51
228.17983012
0
LINE
5
77
100
AcDbEntity
8
teil
6
ByLayer
62
256
370
-1
100
AcDbLine
10
175.619989971
20
19.4931293247
11
170.049875
21
21.3244
0
LINE
5
78
100
AcDbEntity
8
teil
6
ByLayer
62
256
370
-1
100
AcDbLine
10
184.308250058
20
18.039204157
11
175.693951015
21
19.4749206642
0
ARC
5
79
100
AcDbEntity
8
teil
6
ByLayer
62
256
370
-1
100
AcDbCircle
10
175.776150508
20
19.9681176262
40
0.5
100
AcDbArc
50
251.800834947
51
260.537677792
0
ARC
5
7A
100
AcDbEntity
8
teil
6
ByLayer
62
256
370
-1
100
AcDbCircle
10
64.1363636364
20
17.6818181818
40
3.15246197898
100
AcDbArc
50
24.7174409111
51
168.6629938
0
ARC
5
7B
100
AcDbEntity
8
teil
6
ByLayer
62
256
370
-1
100
AcDbCircle
10
62.0259007187
20
18.1049480013
40
1
100
AcDbArc
50
168.6629938
51
199.983106522
0
LINE
5
7C
100
AcDbEntity
8
teil
6
ByLayer
62
256
370
-1
100
AcDbLine
10
64.7606338411
20
7.65825693691
11
61.0861072952
21
17.7632049382
0
LINE
5
7D
100
AcDbEntity
8
teil
6
ByLayer
62
256
370
-1
100
AcDbLine
10
65.7004272646
20
7
11
84.5
21
7
0
ARC
5
7E
100
AcDbEntity
8
teil
6
ByLayer
62
256
370
-1
100
AcDbCircle
10
65.7004272646
20
8
40
1
100
AcDbArc
50
199.983106522
51
270
0
LINE
5
7F
100
AcDbEntity
8
teil
6
ByLayer
62
256
370
-1
100
AcDbLine
10
220
20
0
11
360
21
0
0
LINE
5
80
100
AcDbEntity
8
teil
6
ByLayer
62
256
370
-1
100
AcDbLine
10
220
20
0
11
220
21
190
0
LINE
5
81
100
AcDbEntity
8
teil
6
ByLayer
62
256
370
-1
100
AcDbLine
10
360
20
0
11
360
21
190
0
LINE
5
82
100
AcDbEntity
8
teil
6
ByLayer
62
256
370
-1
100
AcDbLine
10
220
20
190
11
360
21
190
0
ENDSEC
0
SECTION
2
OBJECTS
0
DICTIONARY
5
C
330
0
100
AcDbDictionary
281
1
3
ACAD_GROUP
350
D
0
DICTIONARY
5
D
330
C
100
AcDbDictionary
281
1
0
ENDSEC
0
EOF
